Oops, an error
Loading. Please wait.

Where The Streets Have No Name bass

version 3
version 3

Whole song

Interactive

by U2
22,388 views 105 this week
6 commentsread comments
1 2 3 4 5
x 26
add to favorites
×
Save as Personal and add changes to this tab that will be seen only by you. Learn more ›
×
You can save this tab as Personal to edit and correct it or add notes. All changes will be seen only by you. Learn more »
launch autoscroll
font size
0
reset
guitar tuner
backing track
0:00
0:00
edit
Autoscroll
slow
fast
+/-
esc
set tempo
stop
Author
Difficulty
Where the streets have no name basstab – U2 : The Joshua Tree
Timing from the Joshua Tree 20th anniversary cd

[Intro]
(starting around 1.09)
        D               D               D                       D
G----------------------------------------------------------------------|
D----------------------------------------------------------------------|
A17\5-5-5-5-5-5-5-5-|5-5-5-5-5-5-5-5-|0-5-5-5-5-5-5-5-|5-5-5-5-5-5-5-5-|
E----------------------------------------------------------------------|
        D               D               G                       G
G-----------------------------------------------------------------------------------|
D-----------------------------------------------------------------------------------|
A-5-5-5-5-5-5-5-5-|5-5-5-5-5-5-5-5-|10-10-10-10-10-10-10-10|-10-10-10-10-10-10-10-10|
E-----------------------------------------------------------------------------------|
        D               D               G                       G
G------------------------------------------------------------------------------------|
D------------------------------------------------------------------------------------|
A-5-5-5-5-5-5-5-5-|5-5-5-5-5-5-5-5-|10-10-10-10-10-10-10-10-|10-10-10-10-10-10-10-10-|
E------------------------------------------------------------------------------------|
        B               B               A                       A
G--------------------------------------------------------------------|
D-9-9-9-9-9-9-9-9-|9-9-9-9-9-9-9-9-|7-7-7-7-7-7-7-7-|7-7-7-7-7-7-7-7-|
A--------------------------------------------------------------------|
E--------------------------------------------------------------------|
        C               C               C                       C
G------------------------------------------------------------------------------------|
D------------------------------------------------------------------------------------|
A-3-3-3-3-3-3-3-3-|3-3-3-3-3-3-3-3-|/15-15-15-15-15-15-15-15-|15-15-15-15-15-15-15-15|
E------------------------------------------------------------------------------------|

[Verse]
(1.47 “I want to run..”)& (2.18 “I want to feel..”)
        D               D               D                       D
G--------------------------------------------------------------------|
D--------------------------------------------------------------------|
A-5-5-5-5-5-5-5-5-|5-5-5-5-5-5-5-5-|5-5-5-5-5-5-5-5-|5-5-5-5-5-5-5-5-|
E--------------------------------------------------------------------|
        D               D               G                       G
G-----------------------------------------------------------------------------------|
D-----------------------------------------------------------------------------------|
A-5-5-5-5-5-5-5-5-|5-5-5-5-5-5-5-5-|10-10-10-10-10-10-10-10-|10-10-10-10-10-10-10-10|
E-----------------------------------------------------------------------------------|
        B               B               A                       A
G--------------------------------------------------------------------|
D-9-9-9-9-9-9-9-9-|9-9-9-9-9-9-9-9-|7-7-7-7-7-7-7-7-|7-7-7-7-7-7-7-7-|
A--------------------------------------------------------------------|
E--------------------------------------------------------------------|
        C               C               C                       C
G------------------------------------------------------------------------------------|
D------------------------------------------------------------------------------------|
A-3-3-3-3-3-3-3-3-|3-3-3-3-3-3-3-3-|/15-15-15-15-15-15-15-15-|15-15-15-15-15-15-15-15|
E------------------------------------------------------------------------------------|

[Chorus]
“Where the streets have no name..” (2.48)
        D               D               D                       D
G--------------------------------------------------------------------|
D--------------------------------------------------------------------|
A-5-5-5-5-5-5-5-5-|5-5-5-5-5-5-5-5-|5-5-5-5-5-5-5-5-|5-5-5-5-5-5-5-5-|
E--------------------------------------------------------------------|
        G               G               G                       G
G--------------------------------------------------------------------|
D--------------------------------------------------------------------|
A--------------------------------------------------------------------|
E-3-3-3-3-3-3-3-3-|3-3-3-3-3-3-3-3|3-3-3-3-3-3-3-3-|3-3-3-3-3-3-3-3--|
        B               B               A                       A
G--------------------------------------------------------------------|
D--------------------------------------------------------------------|
A-2-2-2-2-2-2-2-2|-2-2-2-2-2-2-2-2|-0-0-0-0-0-0-0-0|-0-0-0-0-0-0-0-0-|
E--------------------------------------------------------------------|

        D               D               D                       D
G-------------------------------------------------------------------------------------|
D-------------------------------------------------------------------------------------|
A-5-5-5-5-5-5-5-5-|5-5-5-5-5-5-5-5-|/17-17-17-17-17-17-17-17-|17-17-17-17-17-17-17-17-|
E-------------------------------------------------------------------------------------|

[Verse 3]
“The City’s a flood…” (3.19)
        D               D               D                       D
G--------------------------------------------------------------------|
D--------------------------------------------------------------------|
A-5-5-5-5-5-5-5-5-|5-5-5-5-5-5-5-5-|5-5-5-5-5-5-5-5-|5-5-5-5-5-5-5-5-|
E--------------------------------------------------------------------|
        D               D               G                       G
G--------------------------------------------------------------------|
D--------------------------------------------------------------------|
A-5-5-5-5-5-5-5-5-|5-5-5-5-5-5-5-5-|---------------------------------|
E----------------------------------|3-3-3-3-3-3-3-3-|3-3-3-3-3-3-3-3-|
        B               B               A                       A
G--------------------------------------------------------------------|
D--------------------------------------------------------------------|
A-2-2-2-2-2-2-2-2|-2-2-2-2-2-2-2-2|-0-0-0-0-0-0-0-0|-0-0-0-0-0-0-0-0-|
E--------------------------------------------------------------------|
        C               C               C                       C
G------------------------------------------------------------------------------------|
D------------------------------------------------------------------------------------|
A-3-3-3-3-3-3-3-3-|3-3-3-3-3-3-3-3-|/15-15-15-15-15-15-15-15-|15-15-15-15-15-15-15-15|
E------------------------------------------------------------------------------------|

[Chorus 2]
“Where the streets have no name” (3.49)
        D               D               D                       D
G--------------------------------------------------------------------|
D--------------------------------------------------------------------|
A-5-5-5-5-5-5-5-5-|5-5-5-5-5-5-5-5-|5-5-5-5-5-5-5-5-|5-5-5-5-5-5-5-5-|
E--------------------------------------------------------------------|
        G               G               G                       G
G------------------------------------------------------------------------------------------------|
D------------------------------------------------------------------------------------------------|
A10-10-10-10-10-10-10-10|10-10-10-10-10-10-10-10|10-10-10-10-10-10-10-10-|10-10-10-10-10-10-10-10|
E------------------------------------------------------------------------------------------------|

        B               B               A                       A
G--------------------------------------------------------------------|
D-9-9-9-9-9-9-9-9-|9-9-9-9-9-9-9-9-|7-7-7-7-7-7-7-7-|7-7-7-7-7-7-7-7-|
A--------------------------------------------------------------------|
E--------------------------------------------------------------------|

        D               D               D                       D
G--------------------------------------------------------------------|
D--------------------------------------------------------------------|
A-5-5-5-5-5-5-5-5-|5-5-5-5-5-5-5-5-|5-5-5-5-5-5-5-5-|5-5-5-5-5-5-5-5-|
E--------------------------------------------------------------------|
        G               G               G                       G
G--------------------------------------------------------------------|
D--------------------------------------------------------------------|
A--------------------------------------------------------------------|
E-3-3-3-3-3-3-3-3-|3-3-3-3-3-3-3-3|3-3-3-3-3-3-3-3-|3-3-3-3-3-3-3-3--|
        D               D               D                       D
G--------------------------------------------------------------------|
D--------------------------------------------------------------------|
A-5-5-5-5-5-5-5-5-|5-5-5-5-5-5-5-5-|5-5-5-5-5-5-5-5-|5-5-5-5-5-5-5-5-|
E--------------------------------------------------------------------|
        G               G               G                       G
G--------------------------------------------------------------------|
D--------------------------------------------------------------------|
A--------------------------------------------------------------------|
E-3-3-3-3-3-3-3-3-|3-3-3-3-3-3-3-3|3-3-3-3-3-3-3-3-|3-3-3-3-3-3-3-3--|
        B               B               A                       A
G--------------------------------------------------------------------|
D--------------------------------------------------------------------|
A-2-2-2-2-2-2-2-2|-2-2-2-2-2-2-2-2|-0-0-0-0-0-0-0-0|-0-0-0-0-0-0-0-0-|
E--------------------------------------------------------------------|
        D
G--------------------------------------------------------------------|
D--------------------------------------------------------------------|
A-5(Let ring)--------------------------------------------------------|
E--------------------------------------------------------------------|



************************************

| \  Slide down
| /  Slide up

************************************

            
            
Suggest correction
Creating personal tab
Creating personal tab
You can edit any tab online and save it as your Personal.

You can edit, replace or remove any tab part or add personal notes – all changes will be seen only by you.

Personal tabs can be accessed anytime from any device, even offline.
Learn more »
comments
print report bad tab
6 comments total. Showing first comments.
0 reply
saberrocks 1,167 Feb 16, 2012 07:54 AM

Seems solid to me!

0 reply
Lowman5000 360 May 16, 2013 02:03 PM

Doesn't he play that little melody on the D-chord in the chorus?

0 reply
Andycat68 10 Aug 17, 2017 07:55 AM

Awesome Tab. Spot on!

guest
You may want to rate the tab now too:
select rating
Wanna post a correction for this tab? Suggest correction