Oops, an error
Loading. Please wait.

12 Bar bass

by UB40
891 views 3 this week
1 commentread comment
1 2 3 4 5
1 last vote to show rating
add to favorites
×
Save as Personal and add changes to this tab that will be seen only by you. Learn more ›
×
You can save this tab as Personal to edit and correct it or add notes. All changes will be seen only by you. Learn more »
launch autoscroll
font size
0
reset
guitar tuner
edit
Autoscroll
slow
fast
+/-
esc
set tempo
stop
Author
Difficulty
UB40s Signing Off is home to this track:

Intro:(play twice)
G:-------2----4----2-|
D:--2--33---55---33--|
A:33-----------------|
E:-------------------|

Verse:
G:----------2--552---4--774---2-5---------------22--552---4-444--2-------|
D:--2--55223-------55------533---5----22-55-2033--------5------23-2------|
A:33------------------------------0233-----------------------------2---3-|
E:------------------------------------------------------------------033--|

Basically listen to the track & find the positions,There are many many Riffs for you to 
find!It is what it says a 12 Bar trick(I,IV,V)in the key of C.

            
            
Suggest correction
Creating personal tab
Creating personal tab
You can edit any tab online and save it as your Personal.

You can edit, replace or remove any tab part or add personal notes – all changes will be seen only by you.

Personal tabs can be accessed anytime from any device, even offline.
Learn more »
Give kudos to tab author, rate the tab!
1 2 3 4 5
comments
print report bad tab
1 comment total.
0 reply
MistyMorning 1,450 Dec 18, 2013 03:05 AM

The above is very messy it was one of mi first 3 Tabs!A better example:
C F G F C
G|----------|--22-55-2-|---44-77-4-|--2--5-2-|------------|
D|--2-55-2-2h3---------|55---------|3--------|---22-55-22-|
A|33--------|----------|-----------|--------2h33----------|
E|----------|----------|-----------|---------|------------|
F G F C
G|---22-55-22-|---44-77-4--|--2--5-----|
D|33----------|55---------2/3-----2-5--|
A|------------|------------|----------2h3
E|------------|------------|-----------|

guest
You may want to rate the tab now too:
select rating
Wanna post a correction for this tab? Suggest correction