Oops, an error
Loading. Please wait.

Bring It On Home To Me bass

by UB40
1,316 views 1 this week
no commentswrite comment
1 2 3 4 5
2 more votes to show rating
add to favorites
×
Save as Personal and add changes to this tab that will be seen only by you. Learn more ›
×
You can save this tab as Personal to edit and correct it or add notes. All changes will be seen only by you. Learn more »
launch autoscroll
font size
0
reset
guitar tuner
edit
Autoscroll
slow
fast
+/-
esc
set tempo
stop
The Bass Tab for UB40`s version of `Bring It On Home To Me`, 
Which is taken from 2009`s `Labour Of Love 4`]

 [Intro]
G|---------:---------:---------:----------:---------:---------:---------:------------|
D|---------:---------:---------:---------3:---------:---------:---------:-----------3|
A|---------:---------:6-6-6-6-6:6-6-6-6-6-:---------:4-4-4-4-4:---------:4-6-4-6-4-6-|
E|4-4-4-4-4:4-4-4-4-4:---------:----------:4-4-4-4-4:---------:4-4-4-4-4:------------|

 
[Verse]Repeat Until Chorus
G|---------:----------:---------:----------:---------:-----------:---------:-----------|
D|---------:----------:---------:---------3:---------:-----------:---------:-----------|
A|---------:---------4:6-6-6-6-6:6-6-6-6-6-:---------:-----------:4-4-4-4-4:4-4-4-4-4-6|
E|4-4-4-4-4:4-4-4-4-4-:---------:----------:4-4-4-4-4:4-4-4-4-4-6:---------:-----------|
 

 [Chorus]"Bring It To Me",Etc
G|---------:----------:---------:----------:---------:---------:---------:----------|
D|---------:----------:---------:----------:---------:---------:---------:---------3|
A|---------:---------3:6-6-6-6-6:4-4-4-4-4-:---------:4-4-4-4-4:---------:6-6-6-6-6-|
E|4-4-4-4-4:4-4-4-4-4-:---------:---------6:4-4-4-4-4:---------:4-4-4-4-4:----------|

The Bass Line is Tabbed in it`s first around position,
Any additional note after that their positions will be easy enough to find!

Comments/Corrections welcome.

            
            
Suggest correction
Creating personal tab
Creating personal tab
You can edit any tab online and save it as your Personal.

You can edit, replace or remove any tab part or add personal notes – all changes will be seen only by you.

Personal tabs can be accessed anytime from any device, even offline.
Learn more »
Give kudos to tab author, rate the tab!
1 2 3 4 5
comments
print report bad tab
guest
You may want to rate the tab now too:
select rating
Wanna post a correction for this tab? Suggest correction