Oops, an error
Loading. Please wait.

Cherry Oh Baby bass

by UB40
1,728 views 15 this week
no commentswrite comment
1 2 3 4 5
x 3
add to favorites
×
Save as Personal and add changes to this tab that will be seen only by you. Learn more ›
×
You can save this tab as Personal to edit and correct it or add notes. All changes will be seen only by you. Learn more »
launch autoscroll
font size
0
reset
guitar tuner
edit
Autoscroll
slow
fast
+/-
esc
set tempo
stop
The Bass Tab and Chord Layout For UB40`s version of Eric Donaldson`s 'Cherry Oh Baby' 
which is the opening track taken from the bands 1983 L.P 'Labour Of Love'....

[Intro] 
      "Cherry oh cherry oh baby"
  G
G|--------|            
D|--------|
A|--------|
E|3-------|

[Verses and Chorus`s]
  G        C   G               D   G               C   G              D     G
G|--------|---------|---------|---------|---------|---------|--------|-----------|
D|--------|---------|---------|---------|---------|---------|--------|-----------|
A|--------|3-3------|---------|5-5------|---------|3-3------|--------|3h5-5------|
E|3--3-3-3|----3-3-3|3-3-3-3-3|----3-3-3|3-3-3-3-3|----3-3-3|3--3-3-3|------3-3-3|
  G         C   G               D   G     .         C     G               D   G
G|---------|---------|---------|---------|--------|-----------|---------|---------|
D|---------|---------|---------|---------|--------|-----------|---------|---------|
A|---------|3-3------|---------|5-5------|--------|2h3-3------|---------|5-5------|
E|3-3-3-3-3|----3-3-3|3-3-3-3-3|----3-3-3|3--3-3-3|------3-3-3|3-3-3-3-3|----3-3-3|
  G        C  G                 D   G               C   G              D    G
G|--------|----------|---------|---------|---------|---------|--------|---------|
D|--------|----------|---------|---------|---------|---------|--------|---------|
A|--------|3---------|---------|5-5------|---------|3-3------|--------|5-5------|
E|3----3-3|---3-3-3-3|3-3-3-3-3|----3-3-3|3-3-3-3-3|----3-3-3|3--3-3-3|-----3-3-|
  G         C     G               D   G              C   G               D   .     G
G|---------|-----------|---------|---------|--------|---------|---------|--------------|
D|---------|-----------|---------|---------|--------|---------|---------|--------------|
A|---------|2h3-3------|---------|5-5------|--------|3-3------|--------2h3h5-5---------|
E|3-3-3-3-3|------3-3-3|3-3-3-3-3|----3-3-3|3--3-3-3|----3-3-3|3-3-3-3--|------0h2h3-3-|

[Legend]
| h = Hammer-on.  | . = Staccato.


Simple as!
The first line is the track repeated and mixed about with the Chords,
I`ve used a few fills and variations as Earl does live as it`s quite 
tedious to play that first line for 3 and a half minutes.... 

Comments/Corrections welcome....


            
            
Suggest correction
Creating personal tab
Creating personal tab
You can edit any tab online and save it as your Personal.

You can edit, replace or remove any tab part or add personal notes – all changes will be seen only by you.

Personal tabs can be accessed anytime from any device, even offline.
Learn more »
Give kudos to tab author, rate the tab!
1 2 3 4 5
comments
print report bad tab
guest
You may want to rate the tab now too:
select rating
Wanna post a correction for this tab? Suggest correction