Oops, an error
Loading. Please wait.

Guns In The Ghetto bass

by UB40
364 views 3 this week
no commentswrite comment
1 2 3 4 5
x 3
add to favorites
×
Save as Personal and add changes to this tab that will be seen only by you. Learn more ›
×
You can save this tab as Personal to edit and correct it or add notes. All changes will be seen only by you. Learn more »
launch autoscroll
font size
0
reset
guitar tuner
edit
Autoscroll
slow
fast
+/-
esc
set tempo
stop
Here is the Bass tab(played on keys)for the title track from UB40`s 1997 album release 
named 'Guns In The Ghetto' and it was also a rare U.K promo single....

[Intro]
G|------|------|------|------|------|------|------|------|
D|------|------|4-4---|4-4---|------|------|6-6---|6-6---|
A|4-4---|4-4---|------|------|4-4---|4-4---|------|------|
E|------|------|------|------|------|------|------|------|

[Verses]"daddy don`t go...."                    
G||------|------|------|------|------|------|------|------||      
D||------|------|4-4---|4-4---|------|------|6-6---|6-6---||   
A||4-4---|4-4---|------|------|4-4---|4-4---|------|------||   
E||------|------|(2)---|------|------|------|(4)---|------||          

[Into Chorus]"they`re giving out...."
G|------|(4~6----|
D|------|-----6~)|
A|4-4---|4-4-----|
E|------|--------|

[Chorus`s]"there saying they`ll...."
G|------|------|------|------|------|------|------|------|------|------|------|------|------|------|
D|4-4---|4-4---|------|------|6-6---|6-6---|------|------|4-4---|4-4---|------|------|6-6---|6-6---|
A|------|------|4-4---|4-4---|------|------|4-4---|4-4---|------|------|4-4---|4-4---|------|------|
E|(2)---|------|------|------|(4)---|(44)--|------|------|(22)--|(2)---|------|------|------|-(4)--|

[Outro]                                     
G||------|------|------|------|------|------|------|------||
D||------|------|4-4---|4-4---|------|------|6-6---|6-6~~~||
A||4-4---|4-4---|------|------|4-4---|4-4---|------|------||
E||------|------|------|------|------|------|------|------||

Just listen to the track to find the changes it`s a very simple but effective Bass line,
It is on record the Intro line throughout....

[Legend]
| ( )= Ghost Notes/Played live in variation
| ~ = Vibrato(with effects from keys)


Comments/Corrections....

 

            
            
Suggest correction
Creating personal tab
Creating personal tab
You can edit any tab online and save it as your Personal.

You can edit, replace or remove any tab part or add personal notes – all changes will be seen only by you.

Personal tabs can be accessed anytime from any device, even offline.
Learn more »
Give kudos to tab author, rate the tab!
1 2 3 4 5
comments
print report bad tab
guest
You may want to rate the tab now too:
select rating
Wanna post a correction for this tab? Suggest correction