Oops, an error
Loading. Please wait.

Drop Around The Clock tab

1,995 views 1 this week
1 commentread comment
1 2 3 4 5
2 more votes to show rating
add to favorites
×
Save as Personal and add changes to this tab that will be seen only by you. Learn more ›
×
You can save this tab as Personal to edit and correct it or add notes. All changes will be seen only by you. Learn more »
launch autoscroll
font size
0
reset
how to read this tab
guitar tuner
edit
Autoscroll
slow
fast
+/-
esc
set tempo
stop
Author
Difficulty
-------------------------------------------------------------------------------
            Drop Around The Clock – Ubiquitous Synergy Seeker
-------------------------------------------------------------------------------
Tabbed by: zack_ritch
Email: zack_ritch@hotmail.com

Tuning: Standard (Originally down 1/2 step)

     Let ring...
e|-6------------------------------------|
B|-6------------------------------------|
G|-7------------------------------------|
D|-8------------------------------------|
A|-8------------------------------------|
E|-6------------------------------------|

Chorus :
e|--x-x-6-x-x-6--x-x---x----x-x-4-x-x-4--x-x-1-x-x-0-------------------------|
B|--x-x-6-x-x-6--x-x-8-x-8--x-x-4-x-x-4--x-x-1-x-x-0-------------------------|
G|--x-x-7-x-x-7--x-x-8-x-8--x-x-5-x-x-5--x-x-2-x-x-1-------------------------|
D|--x-x-8-x-x-8--x-x-8-x-8--x-x-6-x-x-6--x-x-3-x-x-2-------------------------|
A|--x-x-8-x-x-8--x-x-6-x-6--x-x-6-x-x-6--x-x-3-x-x-2-------------------------|
E|--x-x-6-x-x-6--x-x---x----x-x-4-x-x-4--x-x-1-x-x-0-------------------------|


Verse :
e|--x-x-6-x-x-6--x-x-2-x-x-2—-x-x---x-x----x-x-4-x-x-5-----------------------|
B|--x-x-6-x-x-6--x-x-2-x-x-2--x-x-8-x-x-8--x-x-4-x-x-5-----------------------|
G|--x-x-7-x-x-7--x-x-3-x-x-3--x-x-8-x-x-8--x-x-5-x-x-6-----------------------|
D|--x-x-8-x-x-8--x-x-4-x-x-4--x-x-8-x-x-8--x-x-6-x-x-7-----------------------|
A|--x-x-8-x-x-8--x-x-4-x-x-4--x-x-6-x-x-6--x-x-6-x-x-7-----------------------|
E|--x-x-6-x-x-6--x-x-2-x-x-2--x-x---x-x----x-x-4-x-x-5-----------------------|


Chorus:
We drop around the clock
Trippin’ along the beats around the bloc
Steady she goes
Every all is love in every way
Kiss the peace frog with conviction say

Beats drop like cod fish stocks
Tripping along to beats around the bloc
Steady she goes
Every all is love in every way
Kiss the peace frog with conviction say

Verse:
Dark Lordosis please relieve psychosis
Behaviour through osmosis
Dipsogen cirrhosis
The paranoids playing xylophones
With rusty lukatomes
Chordates makes ideal mates
And perfect posture

Ain't it maxic how thigmotaxic
The herd hath become
Fluoride makes you dumb
Shock the Kasbah diffusion is next
Check the sonic death text
Are we but infinite specks
Left perplexed

Chorus:
We drop like Merck Corp. stocks
Trippin’ along the beats around the bloc
Steady she goes
Every all is love in every way
Kiss the peace frog with conviction say

Verse:
Circadian bowling pin manufacturer
Rhythm machine we're dopamine fiends
Studies show genius's pick green
So chlorophyll me up stream
How scalene waltzing to Rotterdam

Dirty Shirley,
Knockin’ on the membranes
Of reptile brains like Mr. Furley
Jack the tripper pineapple juice sipper
Don't do crystal, hence no use for blipper

Chorus:
We drop like Merck Corp. stocks
Hypo-thalamus gets outlined with chalk
Steady she goes
Every all is love in every way
Kiss the peace frog with conviction say

Verse:
To live chromatically
Or achromatically is my choice
So I choose hues of oranges and blues
No doubts, simple purity
Would you be my surety
Should I arrest myself a Nea Culpa

She's golden by the gram
Words like pixie dust
She sweeps the room with a smile
And a broom so chill
Yet so hot got no cupboard for the pot
Pray that this dream is not for cots

Chorus:
We drop around the clock
Trippin’ along the beats around the bloc
Steady she goes
Every all is love in every way
Kiss the peace frog with conviction say


| /  slide up
| \  slide down
| h  hammer-on
| p  pull-off
| ~  vibrato
| +  harmonic
| x  Mute note
===============================================================================


            
            
Suggest correction
Creating personal tab
Creating personal tab
You can edit any tab online and save it as your Personal.

You can edit, replace or remove any tab part or add personal notes – all changes will be seen only by you.

Personal tabs can be accessed anytime from any device, even offline.
Learn more »
Give kudos to tab author, rate the tab!
1 2 3 4 5
comments
print report bad tab
1 comment total.
0 reply
audiodan 21 Jan 08, 2010 07:57 PM

Great Tab.
I like to play the chorus like this:
Chorus :
e|--x-x-6-x-x-6--x-x---x----x-x-4-x-x-4--x-x-4-x-x-4-------------------------|
B|--x-x-6-x-x-6--x-x-8-x-8--x-x-4-x-x-4--x-x-6-x-x-6-------------------------|
G|--x-x-7-x-x-7--x-x-8-x-8--x-x-5-x-x-5--x-x-6-x-x-6-------------------------|
D|--x-x-8-x-x-8--x-x-8-x-8--x-x-6-x-x-6--x-x-6-x-x-6-------------------------|
A|--x-x-8-x-x-8--x-x-6-x-6--x-x-6-x-x-6--x-x-4-x-x-4-------------------------|
E|--x-x-6-x-x-6--x-x---x----x-x-4-x-x-4--x-x-4-x-x-4-------------------------|

guest
You may want to rate the tab now too:
select rating
Wanna post a correction for this tab? Suggest correction