Oops, an error
Loading. Please wait.
We have an official Doctor Doctor tab made by UG professional guitarists. Check out the tab »
×
by UFO
24,013 views 45 this week
3 commentsread comments
1 2 3 4 5
x 5
add to favorites
×
Save as Personal and add changes to this tab that will be seen only by you. Learn more ›
×
You can save this tab as Personal to edit and correct it or add notes. All changes will be seen only by you. Learn more »
launch autoscroll
font size
0
reset
how to read this tab
guitar tuner
backing track
0:00
0:00
edit
Autoscroll
slow
fast
+/-
esc
set tempo
stop
Doctor Doctor
UFO
I submit this tab because I couldn't find a good one of the whole song anywhere on the
and whether there isn't one, or I'm just not looking I don't know. This is the first tab
done (Though everyone says that), so I hope it's OK. If you want to add a solo, it's in 
key of C (No #s), so it shouldn't be too tricky.
Intro
   Guitar 1 (Rhythm)
E|-----------------------------------------------------------|
A|------------------------------------------0------0---------|
D|-0------------------------------------------2--------------|
G|----2-----2--------------2----(2)-----2------------------2-|
B|-------3------------3-------3-------3-----------------1----|
E|-------------3-1-0----------------0----------------0-------|
 | Guitar 2 (Lead)
E|---------------------------------------------------------------|
A|---------------------------------------------------------------|
D|---------------------------------------------------------------|
G|---------------------------------------------------------------|
B|------------------------------------------------------13--/15--|
E|------------------------------------------12-------------------|

   Rhythm
E|--10-------------------------|
A|------12---------------------|
D|-----------------------------|
G|--------------------------10-|
B|-------------10--------10----|
E|----------10-----12-10-------|

E|-------------------------------------------|
A|-------------------------------------------|
D|-0-------------------------0-------0---0---|
G|----2-----2--------2----------2------------|
B|-----------------------------------------5-|
E|-------1-----0h1p0----0h1--------5---3-----|
 |
E|-------------------------------------------|
A|-------------------------------------------|
D|-------------------------------------------|
G|-------------------------------------------|
B|-------------------------------------------|
E|------17--------------17-------------------|

E|------------------10--------------------------------------------|
A|-0-------------------12-----------------------------------------|
D|---2----2---2---2-----------------------------0-----------0-----|
G|------2-----------------------------------------2---2-----------|
B|--------------1------------10-------10----10------3-------------|
E|----------0-------------10----10h12----10-------------1p0---0h1-|
 |
E|----------------------------------------------------------------|
A|----------------------------------------------------------------|
D|----------------------------------------------------------------|
G|----------------------------------------------------------------|
B|-15-/17--------17--\15------------------------------------------|
E|------------------------------12p10--13----15p13-15--17---------|

E|-------------------------------------10--------------------|
A|------------------0---------------------12-----------------|
D|-0-----0---0---0----2------------2-------------------------|
G|---2--------------------2-----2----2-------------------10--|
B|-------------5--------1-----------------------10----10-----|
E|-----5---3----------------3p0--------------12----10--------|
 |
E|-----------------------------------------------------------|
A|-----------------------------------------------------------|
D|-----------------------------------------------------------|
G|-----------------------------------------------------------|
B|-----------------------------17p15---13--/15---------------|
E|-------------(17b19)r17------------------------------------|


Build-up
E|-------------6-------------------------|
A|-5-----------8-----------3----------5--|
D|-7-----------8-----------5----------7--|
G|-7-----------------------5----------7--|
B|---------------------------------------|
E|---------------------------------------|
 |
E|---------------------------------------|
A|-5v------------------------------------|
D|-------5--7--7h8v--------------7--8-7v-|
G|-------------------------5v------------|
B|---------------------------------------|
E|---------------------------------------|

E|----------------------------------1-----------|
A|----------5-----------1-----------3---1---3---|
D|----------7-----------3-----------3---3---5---|
G|----------7-----------3---------------3---5---|
B|----------------------------------------------|
E|----------------------------------------------|
 |
E|----------------------------------------------|
A|----------8-----------------------------------|
D|----------------5--7--7h8---------7-----------|
G|--------------------------------------4----6--|
B|----------------------------------------------|
E|----------------------------------------------|

Into-verse
E|-------------------------------------1--1-1--1-1--1-1--1------------------|
A|-5--5-5--5-5--5-5-3-1-1--1-1--1-1--1-3----3----3----3----3--3-3--3-3--3-3-|
D|-7----7----7----7-5-3-3----3----3--3-3----3----3----3----5----5----5----5-|
G|-7----7----7----7-5-3-3----3----3--3---------------------5----5----5----5-|
B|--------------------------------------------------------------------------|
E|--------------------------------------------------------------------------|
 |This riff is played on two guitars. I think they play the same thing, but
 |it's hard to be sure. If you play it on one it sounds fine.
E|--------------------------------------------------------------------------|
A|--------------------------------------------------------------------------|
D|--------------------------------------------------------------------------|
G|-9b10----------10r9-7----------------5------------------------------------|
B|-------------------------------------6-------------------6---8b10--r8-----|
E|--------------------------------------------------------------------------|

E|-------------------------------------1--1-1--1-1--1-1--1-3--3-3--3-5--5-5-|
A|-5--5-5--5-5--5-5-3-1-1--1-1--1-1--1-3----3----3----3----5----5----7----7-|
D|-7----7----7----7-5-3-3----3----3--3-3----3----3----3----5----5----7----7-|
G|-7----7----7----7-5-3-3----3----3--3--------------------------------------|
B|--------------------------------------------------------------------------|
E|--------------------------------------------------------------------------|
 |
E|--------------------------------------------------------------------------|
A|--------------------------------------------------------------------------|
D|--------------------------------------------------------------------------|
G|--------------------------------------5---------------5-/7---7/9----------|
B|-8b10----------10r8-6-----------------6--------------------6-----8--------|
E|-------------------------------------------------------------------8-8b10-|

Verse
E|-------------------------------------1--1-1--1-1--1-1--1------------------|
A|-5--5-5--5-5--5-5-3-1-1--1-1--1-1--1-3----3----3----3----3--3-3--3-3--3-3-|
D|-7----7----7----7-5-3-3----3----3--3-3----3----3----3----5----5----5----5-|
G|-7----7----7----7-5-3-3----3----3--3---------------------5----5----5----5-|
B|--------------------------------------------------------------------------|
E|--------------------------------------------------------------------------|
   Doctor doctor, please,              oh,             the mess I’m in

E|-------------------------------------1--1-1--1-1--1-1--1-5--5--5--5--5--5-|
A|-5--5-5--5-5--5-5-3-1-1--1-1--1-1--1-3----3----3----3----7--7--7--7--7--7-|
D|-7----7----7----7-5-3-3----3----3--3-3----3----3----3----7--7--7--7--7--7-|
G|-7----7----7----7-5-3-3----3----3--3--------------------------------------|
B|--------------------------------------------------------------------------|
E|--------------------------------------------------------------------------|
   Doctor doctor, please,              oh,             the mess I’m in

E|-------------------------------------1--1-1--1-1--1-1--1------------------|
A|-5--5-5--5-5--5-5-3-1-1--1-1--1-1--1-3----3----3----3----3--3-3--3-3--3-3-|
D|-7----7----7----7-5-3-3----3----3--3-3----3----3----3----5----5----5----5-|
G|-7----7----7----7-5-3-3----3----3--3---------------------5----5----5----5-|
B|--------------------------------------------------------------------------|
E|--------------------------------------------------------------------------|
   She    walked    up to me,          and really   stole my heart,

E|-------------------------------------1--1-1--1-1--1-1--1-3-3-3-3-3-5-5-5-5-|
A|-5--5-5--5-5--5-5-3-1-1--1-1--1-1--1-3----3----3----3----5-5-5-5-5-7-7-7-7-|
D|-7----7----7----7-5-3-3----3----3--3-3----3----3----3----5-5-5-5-5-7-7-7-7-|
G|-7----7----7----7-5-3-3----3----3--3---------------------------------------|
B|---------------------------------------------------------------------------|
E|---------------------------------------------------------------------------|
   And then  she  started,              to tear  my   body apart,

Chorus
E|-------------------------------------------1-----------3--3--3--5--5--5----|
A|-5---5----5-----1---1----1----3---3----3---3-----------5--5--5--7--7--7--5-|
D|-7---7----7-----3---3----3----5---5----5---3-----------5--5--5--7--7--7--7-|
G|-7---7----7-----3---3----3----5---5----5---------------------------------7-|
B|---------------------------------------------------------------------------|
E|---------------------------------------------------------------------------|

E|-------------------------------------------1-----------3--3--3--5--5--5----|
A|-5---5----5-----1---1----1----3---3----3---3-----------5--5--5--7--7--7--5-|
D|-7---7----7-----3---3----3----5---5----5---3-----------5--5--5--7--7--7--7-|
G|-7---7----7-----3---3----3----5---5----5---------------------------------7-|
B|---------------------------------------------------------------------------|
E|---------------------------------------------------------------------------|
   Livin’,         Lovin’,      I’m on the run,          so far away from you,

E|-------------------------------------------1-----------3--3--3--5--5--5----|
A|-5---5----5-----1---1----1----3---3----3---3-----------5--5--5--7--7--7--5-|
D|-7---7----7-----3---3----3----5---5----5---3-----------5--5--5--7--7--7--7-|
G|-7---7----7-----3---3----3----5---5----5---------------------------------7-|
B|---------------------------------------------------------------------------|
E|---------------------------------------------------------------------------|
   Livin’,         Lovin’,      I’m on the run,          so far away from you,

(Play riff from into-verse)

Verse 2
Doctor, doctor, please,
Oh, I’m goin’ fast.
Doctor, doctor, please,
Oh, I’m goin’ fast.
It’s only just the moment,
She’s turnin’ paranoid.
That’s not a situation,
For a n… nervous boy.

Interlude
E|---------------------------1----3--3-3-5--5-5---|
A|-5-5--5-3-1--1--1---3-3--3-3----5--5-5-7--7-7-5-|
D|-7-7--7-5-3--3--3---5-5--5-3----5--5-5-7--7-7-7-|
G|-7-7--7-5-3--3--3---5-5--5--------------------7-|
B|------------------------------------------------|
E|------------------------------------------------|

(Play riff from into-verse)

Third verse
Doctor doctor, please,
oh, the mess I’m in.
Doctor doctor, please,
oh, the mess I’m in.
But you look so angry,
When you’re crawlin’
‘cross my floor.
I got the strains,
I can’t take any more.

Chorus

Finally, play the into-verse riff to fade-out, but exchange the last note for the first
time you finish it.

            
            
Suggest correction
Creating personal tab
Creating personal tab
You can edit any tab online and save it as your Personal.

You can edit, replace or remove any tab part or add personal notes – all changes will be seen only by you.

Personal tabs can be accessed anytime from any device, even offline.
Learn more »
comments
print report bad tab
3 comments total.
0 reply
OSU71012 213 Aug 14, 2009 06:00 AM

First of all you tabbed it upside down, and second of all i think its in the key of Dm (the B is flat). But, I think if you fixed the fact that this tab is upside down, I think you would have a pretty good tab.

0 reply
buggernuts12 10 Feb 16, 2010 10:01 AM

Yeah, the upside down's kinda crappy (howd you do that?) But it seems accurate

0 reply
Richard 6myth 179 Jul 10, 2010 03:44 AM

I think he's left handed, sometime it's written like that (old school lefty)

guest
Wanna post a correction for this tab? Suggest correction