Oops, an error
Loading. Please wait.

Love To Love tab

version 1
version 1

Whole song

Interactive

by UFO
12,821 views 24 this week
2 commentsread comments
1 2 3 4 5
x 5
add to favorites
×
Save as Personal and add changes to this tab that will be seen only by you. Learn more ›
×
You can save this tab as Personal to edit and correct it or add notes. All changes will be seen only by you. Learn more »
launch autoscroll
font size
0
reset
how to read this tab
guitar tuner
backing track
0:00
0:00
edit
Autoscroll
slow
fast
+/-
esc
set tempo
stop
Author
Difficulty
intermediate
Love To Love - UFO
Lights Out(Chrysalis)
Produced By Ron Nevison
Released 1977

Intro (Keyboard part)
e||----------------------------------||
B||----------------------------------||
G||-9-----7-----9----------------7---||
D||-----------------9-----9----------||
A||-----7-----7---------7-----7------||
E||---0-----0-----0---0-----0------0-|| repeat x3


e|----------------------------------|
B|----------------------8p7---------|
G|-9-----7-----9-----------9-7------|
D|-----------------9-----------9----|
A|-----7-----7---------7------------|
E|---0-----0-----0---0--------------|

Intro (Distorted Electric Guitar)
  E                   E                           E E E
e|-------------------||---------------------------------------------------|
B|-------------------||---------------------------------------------------|
G|-------------------||---------------------------------------------------|
D|9------------------||9---------------------------9-9-9------------------|
A|7---repeat 4 times-||7---------------------------7-7-7------------------|
E|0------------------||0-0-0-0-0-0-0-0-0-0-0-0-0-0-0-0-0-0-0-0-0-0-0-0-0-0|

                           (Acoustic Overdub)
                            E E  D E  Gb A E  G   Gb G   E A
e|-----------------------||-----------------------------------------------||
B|-----------------------||-----------------------------------------------||
G|-----------------------||-9-9--7-9--11-7-9--12--11-12--9-7--------------||
D|-----------------------||-9-9--7-9--11-7-9--12--11-12--9-7--------------||
A|-------repeat 12 times-||-7-7--5-7---9-5-7--10---9-10--7-5-repeat x4----||
E|0-0-0-0----------------||-----------------------------------------------||
  
  C     B E     B   C      D C     B E              D   E       D  E  G 
e|------------------------------------------------||----------------------|| 
B|------------------------------------------------||----------------------|| 
G|------------------------------------------------||-7---9------7--9--12\-||
D|------------------------------------------------||-7---9------7--9--12\-||
A|-3~~~3\2-5/7~~~-2-2/3~~~b(5)r3~~3\2--repeat once||-5---7------5--7--10\-||
E|------------------------------------0-----------||-------0--------------||
                           
   Verse/Chorus (Acoustic Guitar)
   G       D    C         E      G       D        C      C  D
e|-3--3--3-2-2---------------0---3--3--3-2-2-------------------|
B|-3-3-3---3--3-------1-------0--3-3-3---3--3-------1---------3|
G|-0----0--2---2-------0-------0-0----0--2---2-------0-----0-2-|
D|-0-------0---------2--2---2----0-------0---------2--2---2-0--|
A|-2------------0-2-3----3-2-----2------------0-2-3----3-3-----|
E|-3----------------------0------3-----------------------------|


   G     G       D    C         E      G       D      
e|-3--3--3-2-2---------------0---3--3--3-2-2-------|
B|-3-3-3---3--3-------1-------0--3-3-3---3--3------|
G|-0----0--2---2-------0-------0-0----0--2---2-----|
D|-0-------0---------2--2---2----0-------0---------|
A|-2------------0-2-3----3-2-----2------------0-2-3|
E|-3----------------------0------3-----------------|
 
                First Guitar Solo (Acoustic Guitar And Clean Electric Guitar)
        C  D    G        D      C      G               D     C       A G

e|------------||3-0-0-3--2---2--0---0--3-2-3--3-0-0-3--2---2--0---0--5-3-2--|
B|-1---------3||---0------3-3----1-1-------------0------3-3----1-1----------|
G|--0-----0-2-||-----------2------0----------------------2------0-----------|
D|2--2---2-0--||------------------------------------------------------------|
A|----3-3-----||------------------------------------------------------------|
E|------------||------------------------------------------------------------|

  C      D      G        G  D    C      D      G       Em 
e|0---0--2---2--3-0-0-3--3-5-0-3-0---0--2---2--3-0-0-3-0---||
B|-1-1----3-3------0------------0-1-1----3-3------0----0---||
G|--0------2-----------------------0------2------------0---||
D|-----------------------------------------------------2---||
A|-----------------------------------------------------2---||
E|-----------------------------------------------------0---||


  Second Guitar Solo (Distorted Electric Guitar)  
  G      D C           Em    G             DC            Em     G      D C 
e|--------------------------------------------------------------------------|
B|8~~-8-7--------------------8-8b(10)~~~8-7---------------------8~~-8-7-----|
G|-------7\2-2~~-2p(0)2/4~~~---------------7-----4----------------------7\2-|
D|------------------------------------------7~~~7-7\5-4-5-2~~~--------------|
A|--------------------------------------------------------------------------|
E|--------------------------------------------------------------------------|

  Am        Em    G             D    Em
e|-------------------------------------------||
B|----------------8-8b(10)~~~8-7-------------||
G|2~~-2p(0)2/4~~~---------------7\2~-4-------||
D|------------------------------------2~~~~~~||
A|-------------------------------------------||
E|-------------------------------------------||

  Second Intro
  E                   E                           E E E
e|-------------------||---------------------------------------------------|
B|-------------------||---------------------------------------------------|
G|-------------------||---------------------------------------------------|
D|9------------------||9---------------------------9-9-9------------------|
A|7---repeat 4 times-||7---------------------------7-7-7------------------|
E|0------------------||0-0-0-0-0-0-0-0-0-0-0-0-0-0-0-0-0-0-0-0-0-0-0-0-0-0|

                           (Acoustic Overdub)
                            E E  D E  Gb A E  G   Gb G   E A
e|-----------------------||-----------------------------------------------||
B|-----------------------||-----------------------------------------------||
G|-----------------------||-9-9--7-9--11-7-9--12--11-12--9-7--------------||
D|-----------------------||-9-9--7-9--11-7-9--12--11-12--9-7--------------||
A|-------repeat 12 times-||-7-7--5-7---9-5-7--10---9-10--7-5-repeat x4----||
E|0-0-0-0----------------||-----------------------------------------------||

e|----------------||
B|----------------||
G|----------------||
D|----------------||
A|3~~~-3-5/10~~~~~||
E|----------------||


   Verse/Chorus (Acoustic Guitar)
   G       D    C         E      G       D        C      C  D    Em
e|-3--3--3-2-2---------------0---3--3--3-2-2-------------------||-0-----||
B|-3-3-3---3--3-------1-------0--3-3-3---3--3-------1---------3||-0-----||
G|-0----0--2---2-------0-------0-0----0--2---2-------0-----0-2-||-0-----||
D|-0-------0---------2--2---2----0-------0---------2--2---2-0--||-2-----||
A|-2------------0-2-3----3-2-----2------------0-2-3----3-3-----||-2-----||
E|-3----------------------0------3-----------------------------||-0-----||

                                                         (Distorted Electric)
                                                               e|-------||
                                                               B|-------||
                                                               G|-------||
                                                               D|-2-----||
                                                               A|-2-----||
                                                               E|-0-----||

   
  Third Solo
Gtr.I-Distorted Lead
Gtr.II-Distorted Rhythm
        (Fade In)
Gtr.I e|12-------------|12-----12|-|15p(12)-|17p(12)--15p(12)-|14p(12)-|
      B|15b(17)r(17)~~~|15b(17)--|0|------12|-------12------12|------12|
      G|---------------|---------|-|--------|-----------------|--------|
      D|---------------|---------|-|--------|-----------------|--------|
      A|---------------|----x4---|-|---x6---|--------x2-------|--------|
      E|---------------|---------|-|--------|-----------------|--------|

Gtr. II e|----------------------------------------|
        B|----------------------------------------|
        G|-----------5-5--------------------------|
        D|2-2--------5-5--------------------------|
        A|2-2------0-3-3-2-3-2-0---repeat 10 times|
        E|0-0-0-2-3-------------3-2---------------|

Gtr.I e|15p(12)-14p(12)-----12----------------------------------------------|
      B|------12------12--15--15b(17)15-15b(17)~~15-12--------------------15|
      G|----------------------------------------------14-14b(16)~~-14-12-12-|
      D|----------------------------------------------------------------14~-|
      A|--------------------------------------------------------------------|
      E|--------------------------------------------------------------------|

Gtr.I e|-----12--------------------12|-12-----|12--------14--------15-------|
      B|---15--15b(17)~~0-15b(17)~~--|-15b(17)|15b(17)~~~16b(18)~~~17b(19)~~|
      G|-14--------------------------|--------|-----------------------------|
      D|-----------------------------|--------|-----------------------------|
      A|-----------------------------|---x6---|-----------------------------|
      E|-----------------------------|--------|-----------------------------|

Gtr.I e|15-17-17b(19)r(17)p(15)-----18b(19)-18-17-15-17--------------------|
      B|-------------------------------------------------------------------|
      G|-----------------------17~~~-------------------14b(16)r(14)p(12)14-|
      D|-------------------------------------------------------------------|
      A|-------------------------------------------------------------------|
      E|-------------------------------------------------------------------|

Gtr.I e|-------------------22b(24)|22b(24)(24)|22p(19)-|19-22p(19)22p(19)--|
      B|--------------------------|-----------|------22|-----------------22|
      G|12------------------------|-----------|--------|-------------------|
      D|-14-12--------------------|-----------|--------|-------------------|
      A|-----12h14-14-12----------|----x4-----|--------|--------x4---------|
      E|---------------15-12------|-----------|--------|-------------------|

Gtr.I e|--------------------------------------19-----19---------------------|
      B|22b(24)r(22)p(20)-22-20b(21)-----19-22--19-22--22-20-19-20----------|
      G|--------------------------21~~~21-------------------------21~~~19---|
      D|-----------------------------------------------------------------21-|
      A|--------------------------------------------------------------------|
      E|--------------------------------------------------------------------|

Gtr.I e|-----------------------------------|
      B|-----------------------------------|
      G|-------------------5-5-------------|
      D|19-21-19-----------5-5------------2|
      A|--------19-17-19~\-3-3-2-3-2-0----2|
      E|------------------------------3-2-0|

 Tabbed By Rocker102

            
            
Suggest correction
Creating personal tab
Creating personal tab
You can edit any tab online and save it as your Personal.

You can edit, replace or remove any tab part or add personal notes – all changes will be seen only by you.

Personal tabs can be accessed anytime from any device, even offline.
Learn more »
comments
print report bad tab
2 comments total.
0 reply
Crispy4Ever 151 Apr 29, 2013 06:09 AM

SUPERB!

Simply amazing, thanks a lot

0 reply
wiltshire-jake 55 Sep 24, 2016 05:31 AM

Great tab!

guest
You may want to rate the tab now too:
select rating
Wanna post a correction for this tab? Suggest correction