Oops, an error
Loading. Please wait.

Savanni Nukahtaa tab

40 views 1 this week
no commentswrite comment
1 2 3 4 5
3 more votes to show rating
add to favorites
×
Save as Personal and add changes to this tab that will be seen only by you. Learn more ›
×
You can save this tab as Personal to edit and correct it or add notes. All changes will be seen only by you. Learn more »
launch autoscroll
font size
0
reset
how to read this tab
guitar tuner
edit
Autoscroll
slow
fast
+/-
esc
set tempo
stop
[Intro] 
E|-15--15--15--15--15--15--15--15--15--15--15--15--15--15--15--15---|
B|-17--17--17--17--17--17--17--17--17--17--17--17--17--17--17--17---|
G|-16--16--16--16--16--16--16--16--16--16--16--16--16--16--16--16---| (x2)
D|------------------------------------------------------------------|
A|------------------------------------------------------------------|
E|------------------------------------------------------------------|

  Olen       usein        vihannut       sinua  ja
 
E|-15-15-15-15-15-15-15-15--15-15-15-15-15-15-15-15--|
B|-17-17-17-17-17-17-17-17--17-17-17-17-17-17-17-17--|
G|-16-16-16-16-16-16-16-16--14-14-14-14-14-14-14-14--|
D|---------------------------------------------------|
A|---------------------------------------------------|
E|---------------------------------------------------|

       synkkiä    päiviä     jolloin
   
E|-14-14-14-14-14-14-14-14--15-15-15-15-15-15-15-15--|
B|-15-15-15-15-15-15-15-15--17-17-17-17-17-17-17-17--|
G|-14-14-14-14-14-14-14-14--16-16-16-16-16-16-16-16--|
D|---------------------------------------------------|
A|---------------------------------------------------|
E|---------------------------------------------------|
 
     olen  usein     inhonnut       sinua      ja
  
E|-15-15-15-15-15-15-15-15--15-15-15-15-15-15-15-15--|
B|-17-17-17-17-17-17-17-17--17-17-17-17-17-17-17-17--|
G|-16-16-16-16-16-16-16-16--14-14-14-14-14-14-14-14--|
D|---------------------------------------------------|
A|---------------------------------------------------|
E|---------------------------------------------------|

    tyhmiä         päiviä      jolloin

E|-14-14-14-14-14-14-14-14--15-15-15-15--15-15-x-15-15-15-15-|
B|-15-15-15-15-15-15-15-15--17-17-17-17--------x-------------|
G|-14-14-14-14-14-14-14-14--16-16-16-16--12-12-x-12-12-12-12-|
D|-----------------------------------------------------------|
A|-----------------------------------------------------------|
E|-----------------------------------------------------------|

[Bridge] 
  Paiskotaan   kamoja           potkitaan     ovia
E|-----------------------------------------------------------|
B|--9-9-9-x-9--9-9-9-x--9-9---10-10-10-x-10---10-10-10-x-10--|
G|--7-7-7-x-7--7-7-7-x--7-7----9--9--9-x--9----9--9--9-x--9--|
D|--9-9-9-x-9--9-9-9-x--9-9---10-10-10-x-10---10-10-10-x-10--|
A|--7-7-7-x-7--7-7-7-x--7-7----------------------------------|
E|-----------------------------------------------------------|

  toisaalta  rakastan          sitä      hetkeä       jolloin    kaksi     leijonaa
E|-------------------------------------------------------------------------------------|
B|--11-11-11-x-11--11-11-11-x-11------12-12-12-12-12-12-12-12-12-12-12-12-12-12-12-12--|
G|---9--9--9-x--9---9--9--9-x--9------11-11-11-11-11-11-11-11-11-11-11-11-11-11-11-11--|
D|--11-11-11-x-11--11-11-11-x-11-11----9--9--9--9--9--9--9--9--9--9--9--9--9--9--9--9--|
A|---9--9--9-x--9---9--9--9-x--9--9----------------------------------------------------|
E|-------------------------------------------------------------------------------------|

    makaa           sängyssä             raukeina
E|---------------------------------------------------|
B|--13-13-13-13-13-13-13-13-13-13-13-13-13-13-13-13--|
G|---------------------------------------------------|
D|--10-10-10-10-10-10-10-10-10-10-10-10-10-10-10-10--|
A|---------------------------------------------------|
E|---------------------------------------------------|

[Chorus] 
   Savanni nukahtaa    iltapäivän     kuumuuteen

 (w/wah)
    Em                              B7
E|--x-x-7--x-x-x-7--x-x-7--x-x-x-7--x-x-7--x-x-x-7--x-x-7--x-x-x-7--|
B|--x-x-8--x-x-x-8--x-x-8--x-x-x-8--x-x-10-x-x-x-10-x-x-10-x-x-x-10-|
G|--x-x-9--x-x-x-9--x-x-9--x-x-x-9--x-x-8--x-x-x-8--x-x-8--x-x-x-8--|
D|--x-x-9--x-x-x-9--x-x-9--x-x-x-9--x-x-7--x-x-x-7--x-x-7--x-x-x-7--|
A|--x-x-7--x-x-x-7--x-x-7--x-x-x-7--x-x-9--x-x-x-9--x-x-9--x-x-x-9--|
E|----------------------------------x-x-7--x-x-x-7--x-x-7--x-x-x-7--|

   myös me nukahdamme             väsyneet leijonat

E|--x-x-7--x-x-x-7---x-x-7--x-x-x-7---x-x-7--x-x-x-7----------------|
B|--x-x-10-x-x-x-10--x-x-10-x-x-x-10--x-x-8--x-x-x-8-------------12-|
G|--x-x-8--x-x-x-8---x-x-8--x-x-x-8---x-x-9--x-x-x-9------8--11-----|
D|--x-x-7--x-x-x-7---x-x-7--x-x-x-7---x-x-9--x-x-x-9--9----------9--|
A|--x-x-9--x-x-x-9---x-x-9--x-x-x-9---x-x-7--x-x-x-7------6--9------|
E|--x-x-7--x-x-x-7---x-x-7--x-x-x-7-------------------7-------------|

E|--x-x-7--x-x-x-7--x-x-7--x-x-x-7--x-x--9--x-x-x--9-x-x--9-x-x-x--9--|
B|--x-x-8--x-x-x-8--x-x-8--x-x-x-8--x-x-11--x-x-x-11-x-x-11-x-x-x-11--|
G|--x-x-9--x-x-x-9--x-x-9--x-x-x-9--x-x--9--x-x-x--9-x-x--9-x-x-x--9--|
D|--x-x-9--x-x-x-9--x-x-9--x-x-x-9--x-x-11--x-x-x-11-x-x-11-x-x-x-11--|
A|--x-x-7--x-x-x-7--x-x-7--x-x-x-7--x-x--9--x-x-x--9-x-x--9-x-x-x--9--|
E|--------------------------------------------------------------------|

   Keltainen             ja   okran  värinen   maa          se on leijonan 

    Am7                       G                        F
E|--12-12-12-12-12-12-12-12-----------------------------------------------------|
B|--13-13-13-13-13-13-13-13---12-12-12-12-12-12-12-12--10-10-10-10-10-10-10-10--|
G|--12-12-12-12-12-12-12-12---12-12-12-12-12-12-12-12--10-10-10-10-10-10-10-10--|
D|--14-14-14-14-14-14-14-14---12-12-12-12-12-12-12-12--10-10-10-10-10-10-10-10--|
A|--12-12-12-12-12-12-12-12---10-10-10-10-10-10-10-10---8--8--8--8--8--8--8--8--|
E|------------------------------------------------------------------------------|

    osa                   se on leijonan osa

    Em                   D
E|--------------------------------------------------------------------15-15-15-15-15-15-|
B|--8-8-8-8-8-8-8-8------7-----------------17-17-17-17-17-17-17-17-17-17-17-17-17-17-17-|
G|--9-9-9-9-9-9-9-9------7-----------------16-16-16-16-16-16-16-16-16-16-16-16-16-16-16-|
D|--9-9-9-9-9-9-9-9------7--------------------------------------------------------------|
A|--7-7-7-7-7-7-7-7------5--------------------------------------------------------------|
E|--------------------------------------------------------------------------------------|

      Olen     usein           kammonnut sinua  ja

E|-15-15-15-15-15-15-15-15--15-15-15-15-15-15-15-15--|
B|-17-17-17-17-17-17-17-17--17-17-17-17-17-17-17-17--|
G|-16-16-16-16-16-16-16-16--14-14-14-14-14-14-14-14--|
D|---------------------------------------------------|
A|---------------------------------------------------|
E|---------------------------------------------------|

   kurjia   päiviä       jolloin
 
E|-14-14-14-14-14-14-14-14--15-15-15-15-15-15-15-15--|
B|-15-15-15-15-15-15-15-15--17-17-17-17-17-17-17-17--|
G|-14-14-14-14-14-14-14-14--16-16-16-16-16-16-16-16--|
D|---------------------------------------------------|
A|---------------------------------------------------|
E|---------------------------------------------------|

   olen usein ällönnyt sinua    ja

E|-15-15-15-15-15-15-15-15--15-15-15-15-15-15-15-15--|
B|-17-17-17-17-17-17-17-17--17-17-17-17-17-17-17-17--|
G|-16-16-16-16-16-16-16-16--14-14-14-14-14-14-14-14--|
D|---------------------------------------------------|
A|---------------------------------------------------|
E|---------------------------------------------------|

   tylsiä päiviä      jolloin               

E|-14-14-14-14-14-14-14-14--15-15-15-15-15-15-15-15--|
B|-15-15-15-15-15-15-15-15--17-17-17-17-17-17-17-17--|
G|-14-14-14-14-14-14-14-14--16-16-16-16-16-16-16-16--|
D|---------------------------------------------------|
A|---------------------------------------------------|
E|---------------------------------------------------|

[Bridge] 

  Paiskotaan   kamoja           potkitaan     ovia
E|-----------------------------------------------------------|
B|--9-9-9-x-9--9-9-9-x--9-9---10-10-10-x-10---10-10-10-x-10--|
G|--7-7-7-x-7--7-7-7-x--7-7----9--9--9-x--9----9--9--9-x--9--|
D|--9-9-9-x-9--9-9-9-x--9-9---10-10-10-x-10---10-10-10-x-10--|
A|--7-7-7-x-7--7-7-7-x--7-7----------------------------------|
E|-----------------------------------------------------------|

  toisaalta  rakastan          sitä      hetkeä       jolloin    kaksi     leijonaa
E|-------------------------------------------------------------------------------------|
B|--11-11-11-x-11--11-11-11-x-11------12-12-12-12-12-12-12-12-12-12-12-12-12-12-12-12--|
G|---9--9--9-x--9---9--9--9-x--9------11-11-11-11-11-11-11-11-11-11-11-11-11-11-11-11--|
D|--11-11-11-x-11--11-11-11-x-11-11----9--9--9--9--9--9--9--9--9--9--9--9--9--9--9--9--|
A|---9--9--9-x--9---9--9--9-x--9--9----------------------------------------------------|
E|-------------------------------------------------------------------------------------|

    makaa           sängyssä             raukeina
E|---------------------------17-17-17-17-17-17-17-17---|
B|--13-13-13-13-13-13-13-13----------------------------|
G|---------------------------14-14-14-14-14-14-14-14---|
D|--10-10-10-10-10-10-10-10----------------------------|
A|-----------------------------------------------------|
E|-----------------------------------------------------|

   Savanni nukahtaa    iltapäivän     kuumuuteen

 (w/wah)
    Em                              B7
E|--x-x-7--x-x-x-7--x-x-7--x-x-x-7--x-x-7--x-x-x-7--x-x-7--x-x-x-7--|
B|--x-x-8--x-x-x-8--x-x-8--x-x-x-8--x-x-10-x-x-x-10-x-x-10-x-x-x-10-|
G|--x-x-9--x-x-x-9--x-x-9--x-x-x-9--x-x-8--x-x-x-8--x-x-8--x-x-x-8--|
D|--x-x-9--x-x-x-9--x-x-9--x-x-x-9--x-x-7--x-x-x-7--x-x-7--x-x-x-7--|
A|--x-x-7--x-x-x-7--x-x-7--x-x-x-7--x-x-9--x-x-x-9--x-x-9--x-x-x-9--|
E|----------------------------------x-x-7--x-x-x-7--x-x-7--x-x-x-7--|

   myös me nukahdamme             väsyneet leijonat

E|--x-x-7--x-x-x-7---x-x-7--x-x-x-7---x-x-7--x-x-x-7----------------|
B|--x-x-10-x-x-x-10--x-x-10-x-x-x-10--x-x-8--x-x-x-8-------------12-|
G|--x-x-8--x-x-x-8---x-x-8--x-x-x-8---x-x-9--x-x-x-9------8--11-----|
D|--x-x-7--x-x-x-7---x-x-7--x-x-x-7---x-x-9--x-x-x-9--9----------9--|
A|--x-x-9--x-x-x-9---x-x-9--x-x-x-9---x-x-7--x-x-x-7------6--9------|
E|--x-x-7--x-x-x-7---x-x-7--x-x-x-7-------------------7-------------|

E|--x-x-7--x-x-x-7--x-x-7--x-x-x-7--x-x--9--x-x-x--9-x-x--9-x-x-x--9--|
B|--x-x-8--x-x-x-8--x-x-8--x-x-x-8--x-x-11--x-x-x-11-x-x-11-x-x-x-11--|
G|--x-x-9--x-x-x-9--x-x-9--x-x-x-9--x-x--9--x-x-x--9-x-x--9-x-x-x--9--|
D|--x-x-9--x-x-x-9--x-x-9--x-x-x-9--x-x-11--x-x-x-11-x-x-11-x-x-x-11--|
A|--x-x-7--x-x-x-7--x-x-7--x-x-x-7--x-x--9--x-x-x--9-x-x--9-x-x-x--9--|
E|--------------------------------------------------------------------|

   Keltainen             ja   okran  värinen   maa          se on leijonan 

    Am7                       G                        F
E|--12-12-12-12-12-12-12-12-----------------------------------------------------|
B|--13-13-13-13-13-13-13-13---12-12-12-12-12-12-12-12--10-10-10-10-10-10-10-10--|
G|--12-12-12-12-12-12-12-12---12-12-12-12-12-12-12-12--10-10-10-10-10-10-10-10--|
D|--14-14-14-14-14-14-14-14---12-12-12-12-12-12-12-12--10-10-10-10-10-10-10-10--|
A|--12-12-12-12-12-12-12-12---10-10-10-10-10-10-10-10---8--8--8--8--8--8--8--8--|
E|------------------------------------------------------------------------------|

    osa          se on leijonan

    Em                   D
E|----------------------------|
B|--8-8-8-8-8-8-8-8------7----|
G|--9-9-9-9-9-9-9-9------7----|
D|--9-9-9-9-9-9-9-9------7----|
A|--7-7-7-7-7-7-7-7------5----|
E|----------------------------|

 [Interlude]

  osa
  
E|----------------------------------------------------|
B|--9-9-9-x-9--9-9-9-x--9----10-10-10-x-10------------|
G|--7-7-7-x-7--7-7-7-x--7-----9--9--9-x--9------------|
D|--9-9-9-x-9--9-9-9-x--9----10-10-10-x-10---7--4--5--|
A|--7-7-7-x-7--7-7-7-x--7-----------------------------|
E|-------------------------------------------5--6--3--|

E|-------------------------------------------------------------------|
B|--11-11-11-x-11--11-11-11-x-11---7-7-7-x-7---7-7-7-x-7--7--7-7-7---|
G|---9--9--9-x--9---9--9--9-x--9---8-8-8-x-8---8-8-8-x-8--8--8-8-8---|
D|--11-11-11-x-11--11-11-11-x-11---7-7-7-x-7---7-7-7-x-7--7--7-7-7---|
A|---9--9--9-x--9---9--9--9-x--9---9-9-9-x-9---9-9-9-x-9--9--9-9-9---|
E|---------------------------------7-7-7-x-7---7-7-7-x-7--7--7-7-7---|

     Paiskotaan kamoja                potkitaan ovia
 (w/wah)
E|--------------------------------------------------------------|
B|--------------------------------------------------------------|
G|--7-9-9p7---7-9-7-9p7----7---7-9-9p7-----7-9-7-9p7---7--------|
D|----------9-----------9---------------9------------9----------|
A|--------------------------------------------------------------|
E|--------------------------------------------------------------|

    toisaalta          rakastan        
E|--------------------------------------------------------------|
B|--------------------------------------------------------------|
G|--9-11-11p9----9-11-9-11p9----9--9-11-11p9-----9-11-9-11p9----|
D|------------11-------------11---------------11-------------11-|
A|--------------------------------------------------------------|
E|--------------------------------------------------------------|

    sitä     hetkeä  jolloin kaksi leijonaa
                          
E|---------------------------------------------------|
B|--12-12-12-12-12-12-12-12-12-12-12-12-12-12-12-12--|
G|--11-11-11-11-11-11-11-11-11-11-11-11-11-11-11-11--|
D|---9--9--9--9--9--9--9--9--9--9--9--9--9--9--9--9--|
A|---------------------------------------------------|
E|---------------------------------------------------|

    makaa           sängyssä             raukeina
E|---------------------------------------------------|
B|--13-13-13-13-13-13-13-13-13-13-13-13-13-13-13-13--|
G|---------------------------------------------------|
D|--10-10-10-10-10-10-10-10-10-10-10-10-10-10-10-10--|
A|---------------------------------------------------|
E|---------------------------------------------------|

[Chorus]

   Savanni nukahtaa    iltapäivän     kuumuuteen

 (w/wah)
    Em                              B7
E|--x-x-7--x-x-x-7--x-x-7--x-x-x-7--x-x-7--x-x-x-7--x-x-7--x-x-x-7--|
B|--x-x-8--x-x-x-8--x-x-8--x-x-x-8--x-x-10-x-x-x-10-x-x-10-x-x-x-10-|
G|--x-x-9--x-x-x-9--x-x-9--x-x-x-9--x-x-8--x-x-x-8--x-x-8--x-x-x-8--|
D|--x-x-9--x-x-x-9--x-x-9--x-x-x-9--x-x-7--x-x-x-7--x-x-7--x-x-x-7--|
A|--x-x-7--x-x-x-7--x-x-7--x-x-x-7--x-x-9--x-x-x-9--x-x-9--x-x-x-9--|
E|----------------------------------x-x-7--x-x-x-7--x-x-7--x-x-x-7--|

   myös me nukahdamme             väsyneet leijonat

E|--x-x-7--x-x-x-7---x-x-7--x-x-x-7---x-x-7--x-x-x-7----------------|
B|--x-x-10-x-x-x-10--x-x-10-x-x-x-10--x-x-8--x-x-x-8-------------12-|
G|--x-x-8--x-x-x-8---x-x-8--x-x-x-8---x-x-9--x-x-x-9------8--11-----|
D|--x-x-7--x-x-x-7---x-x-7--x-x-x-7---x-x-9--x-x-x-9--9----------9--|
A|--x-x-9--x-x-x-9---x-x-9--x-x-x-9---x-x-7--x-x-x-7------6--9------|
E|--x-x-7--x-x-x-7---x-x-7--x-x-x-7-------------------7-------------|

     peiton alle   apinanleipäpuun katveeseen

E|--x-x-7--x-x-x-7--x-x-7--x-x-x-7--x-x--9--x-x-x--9-x-x--9-x-x-x--9--|
B|--x-x-8--x-x-x-8--x-x-8--x-x-x-8--x-x-11--x-x-x-11-x-x-11-x-x-x-11--|
G|--x-x-9--x-x-x-9--x-x-9--x-x-x-9--x-x--9--x-x-x--9-x-x--9-x-x-x--9--|
D|--x-x-9--x-x-x-9--x-x-9--x-x-x-9--x-x-11--x-x-x-11-x-x-11-x-x-x-11--|
A|--x-x-7--x-x-x-7--x-x-7--x-x-x-7--x-x--9--x-x-x--9-x-x--9-x-x-x--9--|
E|--------------------------------------------------------------------|

   Keltainen             ja   okran  värinen   maa          se on leijonan 

    Am7                       G                        F
E|--12-12-12-12-12-12-12-12-----------------------------------------------------|
B|--13-13-13-13-13-13-13-13---12-12-12-12-12-12-12-12--10-10-10-10-10-10-10-10--|
G|--12-12-12-12-12-12-12-12---12-12-12-12-12-12-12-12--10-10-10-10-10-10-10-10--|
D|--14-14-14-14-14-14-14-14---12-12-12-12-12-12-12-12--10-10-10-10-10-10-10-10--|
A|--12-12-12-12-12-12-12-12---10-10-10-10-10-10-10-10---8--8--8--8--8--8--8--8--|
E|------------------------------------------------------------------------------|

    osa          se on leijonan   osa    

    Em                   D
E|--------------------------------------------12----|
B|--8-8-8-8-8-8-8-8------7--------------------12----|
G|--9-9-9-9-9-9-9-9------7--------------------13----|
D|--9-9-9-9-9-9-9-9------7--------------------14----|
A|--7-7-7-7-7-7-7-7------5--------------------------|
E|--------------------------------------------------|


************************************

| x  Dead note
| p  Pull-off

************************************

            
            
Suggest correction
Creating personal tab
Creating personal tab
You can edit any tab online and save it as your Personal.

You can edit, replace or remove any tab part or add personal notes – all changes will be seen only by you.

Personal tabs can be accessed anytime from any device, even offline.
Learn more »
Give kudos to tab author, rate the tab!
1 2 3 4 5
comments
print report bad tab
guest
You may want to rate the tab now too:
select rating
Wanna post a correction for this tab? Suggest correction