Oops, an error
Loading. Please wait.

Zombies bass

version 1
version 1

Whole song

Interactive

47 views 3 this week
2 commentsread comments
1 2 3 4 5
2 more votes to show rating
add to favorites
×
Save as Personal and add changes to this tab that will be seen only by you. Learn more ›
×
You can save this tab as Personal to edit and correct it or add notes. All changes will be seen only by you. Learn more »
launch autoscroll
font size
0
reset
guitar tuner
edit
Autoscroll
slow
fast
+/-
esc
set tempo
stop
Author
Difficulty
                        Zombies!! (Coming Out Tonight)                          


                                                                  Ultra Saturday
Bass Guitar



G||-------|-------|-------|-------|-------|-------|-------|-------|-------|
D||-------|-------|-------|-------|-------|-------|-------|-------|-------|
A||-------|-------|-------|-------|-------|-------|-------|-------|-------|
E||-------|-------|-------|-------|-------|-------|-------|-------|-------|


Intro
  H        H            H        H           E  E  E  E  Q    Q     
---------------------|--------------------|------------------------|
---------------------|-----------2--------|-----0--2--0-------2----|
---------------------|--3-----------------|--3-----------3---------|
-----------8\--------|--------------------|------------------------|


  H        H           E  E  E  E  E  E  E  E     H        H         
--------------------|--------------------------|--------------------|
-----------2--------|-----0--2--3--2--0--2--0--|-----------2--------|
--3-----------------|--3-----------------------|--3-----------------|
--------------------|--------------------------|--------------------|


  E  E  E  E  Q    Q       E  E  E  E  E  E  E  E   
------------------------|--------------------------|
-----0--2--0-------2----|--------------------------|
--3-----------3---------|--3--3--3--3--3--3--3--3--|
------------------------|--------------------------|





Intro Jam
  E   E  E   E  E   E  E   E     E  E  E  E  E  E  E  E   
--5p--3-----------------------|--------------------------|
---------5p--3----------------|--------------------------|
----------------5p--3---------|--3--3--3--3--3--3--3--2--|
-----------------------5p--3--|--------------------------|


  E  E  E  E  E  E  E  E     E  E  E  E  E  E  E  E   
--------------------------|--------------------------|
--------------------------|--------------------------|
--------------------------|--------------------------|
--3--3--3--3--3--3--3--4--|--5--5--5--5--5--5--5--3--|


  E  E  E  E  E  E  E  E     E  E  E  E  E  E  E  E   
--------------------------|--------------------------|
--------------------------|--------------------------|
--------------------------|--3--3--3--3--3--3--3--2--|
--1--1--1--1--1--1--1--1--|--------------------------|


  E  E  E  E  E  E  E  E     E  E  E  E  E  E  E  E   
--------------------------|--------------------------|
--------------------------|--------------------------|
--------------------------|--------------------------|
--3--3--3--3--3--3--3--4--|--5--5--5--5--5--5--5--3--|






Chorus 1
  E  E  E  E  E  E  E  E     E  E  E  E  E  E  E  E   
--------------------------|--------------------------|
--------------------------|--------------------------|
--------------------------|--3--3--3--3--3--3--3--3--|
--1--1--1--1--3--3--3--3--|--------------------------|


  E  E  E  E  E  E  E  E     E  E  E  E  E  E  E  E   
--------------------------|--------------------------|
--5--5--5--5--5--5--5--6--|--7--7--7--7--7--7--7--5--|
--------------------------|--------------------------|
--------------------------|--------------------------|


  E  E  E  E  E  E  E  E     E  E  E  E  E  E  E  E   
--------------------------|--------------------------|
--3--5--3--2--3--2--0--2--|--------------------------|
--------------------------|--3--3--3--3--3--3--3--3--|
--------------------------|--------------------------|


  E  E  E  E  E  E  E  E     E  E  E  E  E  E  E  E   
--------------------------|--------------------------|
--5--5--5--5--5--5--5--6--|--7--7--7--7--7--7--7--5--|
--------------------------|--------------------------|
--------------------------|--------------------------|


  E  E  E  E  E  E  E  E     E  E  E  E  E  E  E  E   
--------------------------|--------------------------|
--3--5--3--2--3--2--0--2--|--------------------------|
--------------------------|--3--3--3--3--3--3--3--3--|
--------------------------|--------------------------|


  E  E  E  E  E  E  E  E     E  E  E  E  E  E  E  E   
--------------------------|--------------------------|
--5--5--5--5--5--5--5--6--|--7--7--7--7--7--7--7--5--|
--------------------------|--------------------------|
--------------------------|--------------------------|


  E  E  E  E  E  E  E  E     E  E  E  E  E  E  E  E   
--------------------------|--------------------------|
--3--5--3--2--3--2--0--2--|--------------------------|
--------------------------|--3--3--3--3--3--3--3--3--|
--------------------------|--------------------------|


  E  E  E  E  E  E  E  E     E  E  E  E  E  E  E  E     Q    E  E  H         
--------------------------|--------------------------|----------------------|
--5--5--5--5--5--5--5--6--|--7--L--7--6--5--L--5--4--|--3----3--2--0--------|
--------------------------|--------------------------|----------------------|
--------------------------|--------------------------|----------------------|






Verse 1
  E  E  E  E  E  E  E  E     E  E  E  E  E  E  E  E   
--------------------------|--------------------------|
--------------------------|--------------------------|
--3--3--3--3--3--3--3--2--|--------------------------|
--------------------------|--3--3--3--3--3--3--3--4--|


  E  E  E  E  E  E  E  E     E  E  E  E  E  E  E  E   
--------------------------|--------------------------|
--------------------------|--------------------------|
--------------------------|--------------------------|
--5--5--5--5--5--5--5--3--|--1--1--1--1--1--1--1--1--|


  E  E  E  E  E  E  E  E     E  E  E  E  E  E  E  E   
--------------------------|--------------------------|
--------------------------|--------------------------|
--3--3--3--3--3--3--3--2--|--------------------------|
--------------------------|--3--3--3--3--3--3--3--4--|


  E  E  E  E  E  E  E  E     E  E  E  E  E  E  E  E   
--------------------------|--------------------------|
--------------------------|--------------------------|
--------------------------|--------------------------|
--5--5--5--5--5--5--5--3--|--1--1--1--1--1--1--1--1--|


  E  E  E  E  E  E  E  E     E  E  E  E  E  E  E  E   
--------------------------|--------------------------|
--------------------------|--------------------------|
--3--3--3--3--3--3--3--2--|--------------------------|
--------------------------|--3--3--3--3--3--3--3--4--|


  E  E  E  E  E  E  E  E     E  E  E  E  E  E  E  E   
--------------------------|--------------------------|
--------------------------|--------------------------|
--------------------------|--------------------------|
--5--5--5--5--5--5--5--3--|--1--1--1--1--1--1--1--1--|


  E  E  E  E  E  E  E  E     E  E  E  E  E  E  E  E   
--------------------------|--------------------------|
--------------------------|--------------------------|
--3--3--3--3--3--3--3--2--|--------------------------|
--------------------------|--3--3--3--3--3--3--3--4--|


  E  E  E  E  E  E  E  E     E  E  E  E  E  E  E  E   
--------------------------|--------------------------|
--------------------------|--------------------------|
--------------------------|--------------------------|
--5--5--5--5--5--5--5--3--|--1--1--1--1--1--1--1--3--|






Chorus 1
  E  E  E  E  E  E  E  E     E  E  E  E  E  E  E  E   
--------------------------|--------------------------|
--------------------------|--5--5--5--5--5--5--5--6--|
--3--3--3--3--3--3--3--3--|--------------------------|
--------------------------|--------------------------|


  E  E  E  E  E  E  E  E     E  E  E  E  E  E  E  E   
--------------------------|--------------------------|
--7--7--7--7--7--7--7--5--|--3--5--3--2--3--2--0--2--|
--------------------------|--------------------------|
--------------------------|--------------------------|


  E  E  E  E  E  E  E  E     E  E  E  E  E  E  E  E   
--------------------------|--------------------------|
--------------------------|--5--5--5--5--5--5--5--6--|
--3--3--3--3--3--3--3--3--|--------------------------|
--------------------------|--------------------------|


  E  E  E  E  E  E  E  E     E  E  E  E  E  E  E  E   
--------------------------|--------------------------|
--7--7--7--7--7--7--7--5--|--3--5--3--2--3--2--0--2--|
--------------------------|--------------------------|
--------------------------|--------------------------|


  E  E  E  E  E  E  E  E     E  E  E  E  E  E  E  E   
--------------------------|--------------------------|
--------------------------|--5--5--5--5--5--5--5--6--|
--3--3--3--3--3--3--3--3--|--------------------------|
--------------------------|--------------------------|


  E  E  E  E  E  E  E  E     E  E  E  E  E  E  E  E   
--------------------------|--------------------------|
--7--7--7--7--7--7--7--5--|--3--5--3--2--3--2--0--2--|
--------------------------|--------------------------|
--------------------------|--------------------------|


  E  E  E  E  E  E  E  E     E  E  E  E  E  E  E  E   
--------------------------|--------------------------|
--------------------------|--5--5--5--5--5--5--5--6--|
--3--3--3--3--3--3--3--3--|--------------------------|
--------------------------|--------------------------|






Verse 2
  E  E  E  E  E  E  E  E     Q    E  E  H           E  Q    Q    Q    E   
--------------------------|----------------------|-----------------------|
--7--L--7--6--5--L--5--4--|--3----3--2--0--------|-----------------------|
--------------------------|----------------------|--3--------------------|
--------------------------|----------------------|-----------------------|


  Q    Q    Q    Q       Q    Q    Q    Q       H         H         
----------------------|----------------------|---------------------|
----------------------|----------------------|---------------------|
----------------------|----------------------|---------------------|
--3-------------------|--5-------------------|--1h--------3--------|


  E  Q    Q    Q    E     Q    Q    Q    Q       Q    Q    Q    Q     
-----------------------|----------------------|----------------------|
-----------------------|----------------------|----------------------|
--3--------------------|----------------------|----------------------|
-----------------------|--3-------------------|--5-------------------|


  H         H           E  E  E  E  E  E  E  E     E  E  E  E  E  E  E  E   
---------------------|--------------------------|--------------------------|
---------------------|--------------------------|--------------------------|
---------------------|--3--3--3--3--3--3--3--2--|--------------------------|
--1h--------3--------|--------------------------|--3--3--3--3--3--3--3--4--|


  E  E  E  E  E  E  E  E     E  E  E  E  E  E  E  E   
--------------------------|--------------------------|
--------------------------|--------------------------|
--------------------------|--------------------------|
--5--5--5--5--5--5--5--3--|--1--1--1--1--1--1--1--1--|


  E  E  E  E  E  E  E  E     E  E  E  E  E  E  E  E   
--------------------------|--------------------------|
--------------------------|--------------------------|
--3--3--3--3--3--3--3--2--|--------------------------|
--------------------------|--3--3--3--3--3--3--3--4--|


  E  E  E  E  E  E  E  E     E  E  E  E  E  E  E  E   
--------------------------|--------------------------|
--------------------------|--------------------------|
--------------------------|--------------------------|
--5--5--5--5--5--5--5--3--|--1--1--1--1--3--3--3--3--|






Chorus 2
  E  E  E  E  E  E  E  E     E  E  E  E  E  E  E  E   
--------------------------|--------------------------|
--------------------------|--5--5--5--5--5--5--5--6--|
--3--3--3--3--3--3--3--3--|--------------------------|
--------------------------|--------------------------|


  E  E  E  E  E  E  E  E     E  E  E  E  E  E  E  E   
--------------------------|--------------------------|
--7--7--7--7--7--7--7--5--|--3--5--3--2--3--2--0--2--|
--------------------------|--------------------------|
--------------------------|--------------------------|


  E  E  E  E  E  E  E  E     E  E  E  E  E  E  E  E   
--------------------------|--------------------------|
--------------------------|--5--5--5--5--5--5--5--6--|
--3--3--3--3--3--3--3--3--|--------------------------|
--------------------------|--------------------------|


  E  E  E  E  E  E  E  E     E  E  E  E  E  E  E  E   
--------------------------|--------------------------|
--7--7--7--7--7--7--7--5--|--3--5--3--2--3--2--0--2--|
--------------------------|--------------------------|
--------------------------|--------------------------|


  E  E  E  E  E  E  E  E     E  E  E  E  E  E  E  E   
--------------------------|--------------------------|
--------------------------|--5--5--5--5--5--5--5--6--|
--3--3--3--3--3--3--3--3--|--------------------------|
--------------------------|--------------------------|


  E  E  E  E  E  E  E  E     E  E  E  E  E  E  E  E   
--------------------------|--------------------------|
--7--7--7--7--7--7--7--5--|--3--5--3--2--3--2--0--2--|
--------------------------|--------------------------|
--------------------------|--------------------------|


  E  E  E  E  E  E  E  E     E  E  E  E  E  E  E  E   
--------------------------|--------------------------|
--------------------------|--5--5--5--5--5--5--5--6--|
--3--3--3--3--3--3--3--3--|--------------------------|
--------------------------|--------------------------|






Bridge
  E  E  E  E  E  E  E  E     Q    E  E  H           H.           Q     
--------------------------|----------------------|--------------------|
--7--L--7--6--5--L--5--4--|--3----3--2--0--------|--------------------|
--------------------------|----------------------|--3------------2----|
--------------------------|----------------------|--------------------|


  H.           Q       H.           Q       H        H         
--------------------|--------------------|--------------------|
--------------------|--------------------|--------------------|
--------------------|--------------------|--------------------|
--3------------4----|--5------------3----|--1--------3--------|


  E  E  E  E  E  E  E  E     E  E  E  E  E  E  E  E   
--------------------------|--------------------------|
--------------------------|--------------------------|
--3--3--3--3--3--3--3--2--|--------------------------|
--------------------------|--3--3--3--3--3--3--3--4--|


  E  E  E  E  E  E  E  E     E  E  E  E  E  E  E  E   
--------------------------|--------------------------|
--------------------------|--------------------------|
--------------------------|--------------------------|
--5--5--5--5--5--5--5--3--|--1--1--1--1--3--3--3--3--|


  E  E  E  E  E  E  E  E     E  E  E  E  E  E  E  E   
--------------------------|--------------------------|
--------------------------|--------------------------|
--3--3--3--3--3--3--3--2--|--------------------------|
--------------------------|--3--3--3--3--3--3--3--4--|


  E  E  E  E  E  E  E  E     E  E  E  E  E  E  E  E   
--------------------------|--------------------------|
--------------------------|--------------------------|
--------------------------|--------------------------|
--5--5--5--5--5--5--5--3--|--1--1--1--1--3--3--3--3--|


  E  E  E  E  E  E  E  E     E  E  E  E  E  E  E  E   
--------------------------|--------------------------|
--------------------------|--------------------------|
--3--3--3--3--3--3--3--2--|--------------------------|
--------------------------|--3--3--3--3--3--3--3--4--|


  E  E  E  E  E  E  E  E     E   E  E   E  E   E  S  E.   
--------------------------|-----------------------4S-5---|
--------------------------|----------------3h--5---------|
--------------------------|---------1h--3----------------|
--5--5--5--5--5--5--5--3--|--1h--3-----------------------|






Chorus 3
   E   E   E   E   E   E   E   E     E  E  E  E  E  E  E  E   
--12--12--12--12--12--12--12--12--|--7--7--7--7--7--7--7--7--|
--10--10--10--10--10--10--10--10--|--5--5--5--5--5--5--5--5--|
----------------------------------|--------------------------|
----------------------------------|--------------------------|


  E  E  E  E  E  E  E  E     E  E  E  E  E  E  E  E   
--9--9--9--9--9--9--9--9--|--5--5--5--5--5--5--5--5--|
--7--7--7--7--7--7--7--7--|--3--3--3--3--3--3--3--3--|
--------------------------|--------------------------|
--------------------------|--------------------------|


   E   E   E   E   E   E   E   E     E  E  E  E  E  E  E  E   
--12--12--12--12--12--12--12--12--|--7--7--7--7--7--7--7--7--|
--10--10--10--10--10--10--10--10--|--5--5--5--5--5--5--5--5--|
----------------------------------|--------------------------|
----------------------------------|--------------------------|


  E  E  E  E  E  E  E  E     E  E  E  E  E  E  E  E   
--9--9--9--9--9--9--9--9--|--5--5--5--5--5--5--5--5--|
--7--7--7--7--7--7--7--7--|--3--3--3--3--3--3--3--3--|
--------------------------|--------------------------|
--------------------------|--------------------------|


   E   E   E   E   E   E   E   E     E  E  E  E  E  E  E  E   
--12--12--12--12--12--12--12--12--|--7--7--7--7--7--7--7--7--|
--10--10--10--10--10--10--10--10--|--5--5--5--5--5--5--5--5--|
----------------------------------|--------------------------|
----------------------------------|--------------------------|


  E  E  E  E  E  E  E  E     E  E  E  E  E  E  E  E   
--9--9--9--9--9--9--9--9--|--5--5--5--5--5--5--5--5--|
--7--7--7--7--7--7--7--7--|--3--3--3--3--3--3--3--3--|
--------------------------|--------------------------|
--------------------------|--------------------------|


   E   E   E   E   E   E   E   E     E  E  E  E  E  E  E  E   
--12--12--12--12--12--12--12--12--|--7--7--7--7--7--7--7--7--|
--10--10--10--10--10--10--10--10--|--5--5--5--5--5--5--5--5--|
----------------------------------|--------------------------|
----------------------------------|--------------------------|


  E  E  E  E  E  E  E  E     E  E  E  E  E  E  E  E      W                 
--9--9--9--9--9--9--9--9--|--5--5--5--5--5--5--5--5--|--12----------------|
--7--7--7--7--7--7--7--7--|--3--3--3--3--3--3--3--3--|--10----------------|
--------------------------|--------------------------|--------------------|
--------------------------|--------------------------|--------------------|


   Q.      Q.     Q        W                   W                 
--12------10------9s----|--5----------------|--L----------------|
---L-------L------L-----|--5----------------|--L----------------|
------------------------|--3----------------|--L----------------|
------------------------|-------------------|-------------------|


  W                   W                  
--L----------------|--L----------------||
--L----------------|--L----------------||
--L----------------|--L----------------||
-------------------|-------------------||




Duration Legend
---------------
W - whole
H - half
Q - quarter
E - 8th
S - 16th
T - 32nd
X - 64th
. - note dotted
|-n-|  - n-tuplets


Tablature Legend
----------------
L - tied note
x - dead note
g - grace note
(n) - ghost note
> - accentuded note
NH - natural harmonic
AH - artificial harmonic
TH - tapped harmonic
SH - semi harmonic
PH - pitch harmonic
h - hammer on
p - pull off
b - bend
br - bendRelease
pb - preBend
pbr - preBendRelease
brb - bendReleaseBend
\n/ - tremolo bar dip
\n - tremolo bar dive
-/n - tremolo bar Release up
/n\ - tremolo bar inverted dip
/n - tremolo bar return
-\n - tremolo bar Release down
S - shift slide
s - legato slide
/ -  slide into from below or out of upwards
\ -  slide into from above or out of downwards
~ - vibrato
W - wide vibrato
tr - trill
TP - tremolo picking
T - tapping
S - slap
P - pop
< - fade in
^ - brush up
v - brush down

            
            
Suggest correction
Creating personal tab
Creating personal tab
You can edit any tab online and save it as your Personal.

You can edit, replace or remove any tab part or add personal notes – all changes will be seen only by you.

Personal tabs can be accessed anytime from any device, even offline.
Learn more »
Give kudos to tab author, rate the tab!
1 2 3 4 5
comments
print report bad tab
2 comments total.
0 reply
darkmax77 10 Dec 19, 2012 10:29 AM

Great tab ! Thanks a lot ! Where did you find that ?

0 reply
wes_jett2008 515 Feb 24, 2014 07:16 PM

I'm the drummer (Now guitarist) in the band. This tab is straight from the bassist himself :)

guest
You may want to rate the tab now too:
select rating
Wanna post a correction for this tab? Suggest correction