Oops, an error
Loading. Please wait.

Its Dangerous Business Walking Out Your Front Door bass

version 2
version 2

Whole song

Interactive

1,882 views 1 this week
4 commentsread comments
1 2 3 4 5
2 more votes to show rating
add to favorites
×
Save as Personal and add changes to this tab that will be seen only by you. Learn more ›
×
You can save this tab as Personal to edit and correct it or add notes. All changes will be seen only by you. Learn more »
launch autoscroll
font size
0
reset
guitar tuner
edit
Autoscroll
slow
fast
+/-
esc
set tempo
stop
Artist: underOATH
Album: They're Only Chasing Safety
Track: 6
Released: 2004

Key:
~ Let Note Hang
/ Slide down
\ Slide up

Verse 1:
(0:02)
G|----------------------------------------------------------|
D|----------------------------------------------------------|
A|-0-0-0-0----0-0-0-0---------------------------------------|
D|-----------------------3-3-3-3----0-0-0-0-0-0-5-5-5-5-5-5-|

(0:16)
G|-------------------------------------------------------------| x2
D|-------------------------------------------------------------|
A|-------------------------------------------------------------|
D|-7~~~~10/5~~~~10/3~~~~2\5~~~~---7~~~~10/5~~~~10/3~~~~2\5~~~~-|

(1:13)
G|-------------------------------------------------------------| x2
D|-------------------------------------------------------------|
A|-------------------------------------------------------------|
D|-7~~~~10/5~~~~10/3~~~~2\5~~~~---7~~~~10/5~~~~10/3~~~~2\5~~~~-|

Chorus:
(1:41)
G|-------------------------------------------------| x4
D|-------------------------------------------------|
A|-0-0-0-0-0-0-0-0-0-0-0-0-------------------------|
D|-------------------------3-3-3-3-3-3-5-5-5-5-5-5-|

Bridge: (Not quite the bass part but it's close.)
(2:10)
G|-----------------------------------------------------|
D|-----------------------------------------------------|
A|-----------------------------------------------------|
D|-2-2-2-2-2-2-3-3-3-3-3-3-0-0-0-0-0-0-5-5-5-5-5-5--2~-|

Verse 2:
(2:52)
G|----------------------------------------------------------|
D|----------------------------------------------------------|
A|-0-0-0-0----0-0-0-0---------------------------------------|
D|-----------------------3-3-3-3----0-0-0-0-0-0-5-5-5-5-5-5-|

Chorus:
(3:21)
G|-------------------------------------------------| x4
D|-------------------------------------------------|
A|-0-0-0-0-0-0-0-0-0-0-0-0-------------------------|
D|-------------------------3-3-3-3-3-3-5-5-5-5-5-5-|

End:
(3:49)
G|-----|
D|-----|
A|-----|
D|-7~~-|

            
            
Suggest correction
Creating personal tab
Creating personal tab
You can edit any tab online and save it as your Personal.

You can edit, replace or remove any tab part or add personal notes – all changes will be seen only by you.

Personal tabs can be accessed anytime from any device, even offline.
Learn more »
Give kudos to tab author, rate the tab!
1 2 3 4 5
comments
print report bad tab
4 comments total. Showing first comments.
0 reply
Asilaydyingeek 73 Dec 20, 2007 04:54 PM

dude i submitted the exact same tab and they denied it....i mean it was almost exactly like yours...how lame

0 reply
Bass Patriot 156 Dec 25, 2007 09:51 PM

well i guess u and me must b awsum bass players then and we know exactly how the song goes. as 4 the denial. KILL THEM!
KILL THEM ALL!

0 reply
kerjacklebass&! 52 Jul 26, 2008 10:42 AM

your is alot different then the other one...ill just take em both and change them tilli like, this tab is fine i guess though

guest
You may want to rate the tab now too:
select rating
Wanna post a correction for this tab? Suggest correction