Oops, an error
Loading. Please wait.

Moving For The Sake Of Motion intro tab

version 1
version 1

Intro

Whole song

Interactive

2,139 views 3 this week
7 commentsread comments
1 2 3 4 5
x 4
add to favorites
×
Save as Personal and add changes to this tab that will be seen only by you. Learn more ›
×
You can save this tab as Personal to edit and correct it or add notes. All changes will be seen only by you. Learn more »
launch autoscroll
font size
0
reset
how to read this tab
guitar tuner
edit
Autoscroll
slow
fast
+/-
esc
set tempo
stop
UnderOath
"that little lick before a moment suspended in time sorry about fucking up the name i 
this on here before the define the great line came out"
album: define the great line
Drop D, not that it matters here

this is my first tab i had to learn the intro cause its so sick
leave comments and rate all that fun stuff
Underoath rocks!!!
tabbed by :paco

play this first part twice

e---------------------------------------------------------------------------|
B-------------13------10----------------13-------10-------------------------|
G---------------10-------10----------9-----10~------10-------9---10---------|
D--0-12-0-10~------12-------12----12-------------------12------------12-----|
A---------------------------------------------------------------------------|
D---------------------------------------------------------------------------|


this is played over the second time of the intro riff twice listen 4 it

e-----------------------------------------------------------------|
B-----10~------------13~------------------------------------------|
G-----------12~-------------10~-----------------------------------|
D-----------------------------------------------------------------|
A-----------------------------------------------------------------|
D-----------------------------------------------------------------|

end intro on
e------------------------------------------------------------------|
B------------------------------------------------------------------|
G------------------------------10~---------------------------------|
D------------------------------12~---------------------------------|
A------------------------------------------------------------------|
D------------------------------------------------------------------|

            
            
Suggest correction
Creating personal tab
Creating personal tab
You can edit any tab online and save it as your Personal.

You can edit, replace or remove any tab part or add personal notes – all changes will be seen only by you.

Personal tabs can be accessed anytime from any device, even offline.
Learn more »
comments
print report bad tab
7 comments total. Showing first comments.
0 reply
pacsta rocka 16 May 10, 2006 11:46 PM

oh yeah u can use this too sounds a little better
G-------7-----5~--
D----0-----0------

0 reply
getoutofhere 91 May 13, 2006 07:20 AM

dude, this sounds pretty good. i gave it 5*. could you try tabbing a moment suspended in time. i can not figure it out.

0 reply
mattwilham 241 May 17, 2006 06:33 AM

i've got a moment suspended in time tabbed out on paper. i dont have the lead for it, but i have the intro, which sounds perfect to me when i play along with it. if you can wait about a week for me to post it on here, i will, because im really lazy.

guest
You may want to rate the tab now too:
select rating
Wanna post a correction for this tab? Suggest correction