Oops, an error
Loading. Please wait.

Moving For The Sake Of Motion tab

version 2
version 2

Whole song

Interactive

4,461 views 1 this week
6 commentsread comments
1 2 3 4 5
x 6
add to favorites
×
Save as Personal and add changes to this tab that will be seen only by you. Learn more ›
×
You can save this tab as Personal to edit and correct it or add notes. All changes will be seen only by you. Learn more »
launch autoscroll
font size
0
reset
how to read this tab
guitar tuner
edit
Autoscroll
slow
fast
+/-
esc
set tempo
stop
Underoath- Moving For The Sake Of Motion
Define The Great Line- 2006
Drop D

Not too sure about the whole song, if you have any questions, comments, anything like 
email- rj_391@yahoo.com


Intro (x2)
|----------------------------------------------------------|
|----------------------------------------------------------|
|-11--------------12------11------16-------14------11------|
|--X-(x16)-9-------X-(x4)--X-(x4)--X-(x16)--X-(x8)--X-(x8)-|
|--9-------9-(x8)-10-------9------14-------12-------9------|
|----------9-----------------------------------------------|

Verse
|--------------------------------------------------| |--------|
|--------------------------------------------------| |--------|
|-9-------555777----------16-------555777----------| |----11~-|
|-X-(x16)-XXXXXX777777777--X-(x16)-XXXXXX777777777-| |-5~--X~-|
|-7-------333555777777777-14-------333555777777777-| |-5~--9~-|
|---------------777777777----------------777777777-| |-5~-----|

|--------------------------------------------------|
|--------------------------------------------------|
|-9-------555777----------16-------555777----------|
|-X-(x16)-XXXXXX777777777--X-(x16)-XXXXXX777777777-|
|-7-------333555777777777-14-------333555777777777-|
|---------------777777777----------------777777777-|

|------------------------------------|
|------------------------------------|
|----------------14/16-16--------11\-|
|-5~--------------X/-X--X---------X\-|
|-5~-9-5-9-5-9-5-12/14-14-9-5-9-5-9\-|
|-5~---------------------------------|

|------------------------|     |---------------------------------|
|------------------------|     |---------------------------------|
|---111111---111111------|(x4) |-5-5-5-5-5-5-5-5-7-7-7-7-7-7-7-7-|
|-2--X-X-X-2--X-X-X-4440-|     |-X-X-X-X-X-X-X-X-X-X-X-X-X-X-X-X-|
|-2--9-9-9-2--9-9-9-4440-|     |-3-3-3-3-3-3-3-3-5-5-5-5-5-5-5-5-|
|-2--------2--------4440-|     |---------------------------------|

|--------------------------|     |--------------------------|
|--------------------------|     |--------------------------|
|----111111----111111------|(x2) |-9\-111111-9\-111111------|(x2)
|-2\--X-X-X-2\--X-X-X-4440-|     |-X\--X-X-X-X\--X-X-X-4440-|
|-2\--9-9-9-2\--9-9-9-4440-|     |-7\--9-9-9-7\--9-9-9-4440-|
|-2\--------2\--------4440-|     |---------------------4440-|

Fill
|-----|
|-----|
|-16~-|
|--X--|
|-14~-|
|-----|

Chorus
|----------------------------------------------------------|
|----------------------------------------------------------|
|-11--------------12------11------16-------14------11------|(x2)
|--X-(x16)-9-------X-(x4)--X-(x4)--X-(x16)--X-(x8)--X-(x8)-|
|--9-------9-(x8)-10-------9------14-------12-------9------|
|----------9-----------------------------------------------|

Bridge (especially not sure about this part, help please)
|-7-----------7-----------|      |----------------------------------|
|---5-8-5-7-8---5-8-5-7-5-|      |----------------------------------|
|-------------------------|(x10) |-9-9-9-9-9-99-11-11-11-11-11-1111-|
|-------------------------|      |-X-X-X-X-X-XX--X--X--X--X--X--X-X-|
|-------------------------|      |-7-7-7-7-7-77--9--9--9--9--9--9-9-|
|-------------------------|      |----------------------------------|

|--------------------------------| |-----------|
|--------------------------------| |-----------|
|-7-7-7-7-7-7-7-7-9999999999999\-| |-9-12------|(x4)
|-X-X-X-X-X-X-X-X-XXXXXXXXXXXXX\-| |-X--X-(x3)-|
|-5-5-5-5-5-5-5-5-7777777777777\-| |-7-10------|
|--------------------------------| |-----------|

 Outro                    End On This
|---------------------|     |----|
|---------------------|     |----|
|-9\-12-9\-12-1111117-|(x4) |-9\-|
|-X\--X-X\--X--X-X-XX-|     |-X\-|
|-7\-10-7\-10--9-9-95-|     |-7\-|
|---------------------|     |----|

            
            
Suggest correction
Creating personal tab
Creating personal tab
You can edit any tab online and save it as your Personal.

You can edit, replace or remove any tab part or add personal notes – all changes will be seen only by you.

Personal tabs can be accessed anytime from any device, even offline.
Learn more »
comments
print report bad tab
6 comments total. Showing first comments.
0 reply
JoelBrown 92 Aug 09, 2006 03:43 PM

Excelent tab man, pretty sure your 100% correct, maybe a few misses but damn close. Great Job.

0 reply
blink182_4_life 372 Aug 14, 2006 05:57 AM

not too bad
not too bad at all
good song
good stuff

-1 reply
frontman54 94 Nov 10, 2006 08:00 AM

"pretty sure your 100% correct, maybe a few misses"
the second part completely contradicts the first part. im not saying he did a bad tab, yeah its good. but what you said, doesn't go together.

guest
You may want to rate the tab now too:
select rating
Wanna post a correction for this tab? Suggest correction