Oops, an error
Loading. Please wait.

Never Meant To Break Your Heart tab

version 2
version 2

Whole song

Interactive

505 views 1 this week
2 commentsread comments
1 2 3 4 5
2 more votes to show rating
add to favorites
×
Save as Personal and add changes to this tab that will be seen only by you. Learn more ›
×
You can save this tab as Personal to edit and correct it or add notes. All changes will be seen only by you. Learn more »
launch autoscroll
font size
0
reset
how to read this tab
guitar tuner
edit
Autoscroll
slow
fast
+/-
esc
set tempo
stop
Underoath-never meant to break your heart
i love this song so i tried to write i tab,i saw one before
but it wasnt very good so i tried it my self(ear-transcribed) i hope you ll like it.=)
tunning is drop D (d,a,d,g,b,e)
Tab by:Ljubešić

e|--------------------------------------|
b|--------------------------------------|
g|-9----------9-10-10-10-10-10-10-10----|
d|-x------------x-x--x--x--x--x----x----|
a|-7--0-8-7-0-7-8-8--8--8--8--8----8----|
D|----0-8-7-0---------------------------|

|-----------------------------------------------|
|-----------------------------------------------|
|-----------------------------------------------|
|-----------------------------------------5-3-6-|
|-0-0-0-0--0-0-0-0-0-0-0-0-0-0-0-0-0-0-0--3-1-4-|
|-0-0-0-0--0-0-0-0-0-0-0-0-0-0-0-0-0-0-0--3-1-4-|x4

|------------------------------------|
|------------------------------------|
|----12/11-12-11-9/11/9---12/11-14/9-|
|-----x/-x--x--x-x/-x/x----x/-x--x/x-|
|-0--10/-9-10--9-7/-9/7-0-10/-9-12/7-|
|-0---------------------0------------|

|-------------------------------------------------|
|-------------------------------------------------|
|-9-9-9-9-9-9/11-11-11-11-11-11/12-12-12-12-12-12-|
|-x-x-x-x-x-x/-x--x--x--x--x--x/-x--x--x--x--x--x-|
|-7-7-7-7-7-7/-9--9--9--9--9--9/10-10-10-10-10-10-|x2
|-------------------------------------------------|
-clean part
|-7-7-7-7-7-7-7-5-5-5-5-5-5-5-3-3-3-3-3-3-3-|
|-0-0-0-0-0-0-0-0-0-0-0-0-0-0-0-0-0-0-0-0-0-|
|-0-0-0-0-0-0-0-0-0-0-0-0-0-0-0-0-0-0-0-0-0-|
|-0-0-0-0-0-0-0-0-0-0-0-0-0-0-0-0-0-0-0-0-0-|
|-7-7-7-7-7-7-7-5-5-5-5-5-5-5-3-3-3-3-3-3-3-|
|-------------------------------------------|
-dist again
|---------------------------------------------------------------------|
|---------------------------------------------------------------------|
|---------------------------------------------------------------------|
|---------------------------------------------------------------------|
|-7-7-7-7-7-7-7-5-5-5-5-5-5-5-8-8-8-8-8-8-8-10-10-10-10-10-10-10-10---|x2
|---------------------------------------------------------------------|
pm...........................
|---------|
|---------|
|-9/7/11-|
|-x/x/-x-| x4
|-7/5/-9----|
|-----------|

Guitar 1
|---------------------------|
|-17-----17------17----19---|x2
|-----15----15-----15-----15|
|---------------------------|
|---------------------------|
|---------------------------|

Guitar 2
|----------------------------------------------------------------|
|----------------------------------------------------------------|
|----------------------------------------------------------------|
|----------------------------------------------------------------|
|-3-3-3-3-3-3-3-3-3-3-3-2-2-2-7-7-7-7-7-7-7-7-7-7--5--5-5-5-5-5-5|x2
|-3-3-3-3-3-3-3-3-3-3-3-2-2-2-7-7-7-7-7-7-7-7-7-7--5--5-5-5-5-5-5|

pm...........................
-clean with flanger
|---------------------------------------------|
|---------------------------------------------|
|------9---------10---------9---------12------|
|---10---10---10---10---10---10---10----10----|x6
|-8---------8---------8---------8-------------|
|---------------------------------------------|
-dist.
|---------------------------------------------------|
|---------------------------------------------------|
|-12-12-12-12-12-12-12-12-10-10-10-10-9-9-9-9/10/12-|
|--x--x--x--x--x--x--x--x--x--x--x--x-x-x-x-x/-x--x-| x4
|-10-10-10-10-10-10-10-10--8--8--8--8-7-7-7-7/-8/10-|
|---------------------------------------------------|

|-------------------------------------------|
|-------------------------------------------|
|-12-12------10-10------9-9------10-10------|
|--x--x-------x-x-------x-x-------x-x-------|x4
|-10-10-0-0-0-8-8-0-0-0-7-7-0-0-0-8-8-0-0-0-|
|-------0-0-0-----0-0-0-----0-0-0-----0-0-0-|

            
            
Suggest correction
Creating personal tab
Creating personal tab
You can edit any tab online and save it as your Personal.

You can edit, replace or remove any tab part or add personal notes – all changes will be seen only by you.

Personal tabs can be accessed anytime from any device, even offline.
Learn more »
Give kudos to tab author, rate the tab!
1 2 3 4 5
comments
print report bad tab
2 comments total.
0 reply
Gil310 372 Jun 01, 2009 12:24 PM

Good Job.
Been wanting to play this forever, but could never figure it out.

0 reply
ljubes 10 Jul 04, 2009 12:47 PM

sorry guys i made two mistakes at writing,my bad

|---------------------------|
|---------------------------|
|-17-----17------17----19---|x2
|-----15----15-----15-----15|
|---------------------------|
|---------------------------|

---------|
|--------|
|-9/7/10-|
|-x/x/-x-| x4
|-7/5/-8-|
|--------|

guest
Wanna post a correction for this tab? Suggest correction