Oops, an error
Loading. Please wait.

To Whom It May Concern tab

version 2
version 2

Whole song

Interactive

2,462 views 3 this week
no commentswrite comment
1 2 3 4 5
1 last vote to show rating
add to favorites
×
Save as Personal and add changes to this tab that will be seen only by you. Learn more ›
×
You can save this tab as Personal to edit and correct it or add notes. All changes will be seen only by you. Learn more »
launch autoscroll
font size
0
reset
how to read this tab
guitar tuner
edit
Autoscroll
slow
fast
+/-
esc
set tempo
stop
Title: To Whom It May Concern
Artist: Underoath
Album: Define The Great Line
Tuning: Drop D

~ = Let ring
( ) = Hit light
/ = slide
B = Bend
x = Finger mute
P.M = Palm Mute

Intro

Guitar 1:

E|--0~-------0~-----------------------|
B|--6~-------6~-------6~--------------|
G|--9~-------7~-------x~--------------|   Repeat During Intro
D|--7~-------7~-------5~-------7~-----|
A|--0~-------0~-------5~-------7~-----|
D|--------------------5~-------7~-----|

Guitar 2:

Start play when Guitar 1 strums the last chord

E|--5~--------3~-----------|--(5~)-----------(8~)------------|
B|----3---1-------3----1---|-----(3)----(1)------------------|
G|-------------------------|-------------------(7)----(1)----|
D|-------------------------|---------------------------------|
A|-------------------------|---------------------------------|
D|-------------------------|---------------------------------|

Now it's kinda hard to hear, cuz the piano starts play, and you can hardly hear the 
guitar.

E|--5~----------3~-------------|-------------8---------------|
B|------3---1------3----1/5~---|--10-------------------------|
G|-----------------------------|------7--5------7---5--------|
D|-----------------------------|-----------------------7~----|
A|-----------------------------|-----------------------------|
D|-----------------------------|-----------------------------|

Repeat


At the end of the intro, im not sure, but I think guitar 1 plays like this:

Guitar 1 (strum fast)

E|--------------------------------------|
B|--6-6-6-6--6-6-6-6--6-6-6-6--6-6-6-6--|
G|--9-9-9-9--7-7-7-7--5-5-5-5--7-7-7-7--|
D|--------------------------------------|
A|--------------------------------------|
D|--------------------------------------|

And at the very end guitar 2 plays:

Guitar 2

E|------------------|
B|------------------|
G|--9/--10/--7~-----|
D|------------------|
A|------------------|
D|------------------|

Verse:

Guitar 1

  So   hold your head up high and know - it's not the end of the road
E|-----------------------------------------------------------------------|
B|-----------------------------------------------------------------------|
G|-----------------------------------------------------------------------|
D|-3-3-3~-------5-5-5~------------7-7-7~-------5-5-5~-----------3-3-3~---|
A|-3-3-3~-------5-5-5~------------7-7-7~-------5-5-5~-----------3-3-3~---|
D|-3-3-3~-------5-5-5~------------7-7-7~-------5-5-5~-----------3-3-3~---|  Keep on play 
this

Guitar 2 plays:

E|---------------------------------------|
B|---------------------------------------|
G|---7-9-5--------5-7-3--------9-10-7----|
D|---------------------------------------|
A|---------------------------------------|
D|---------------------------------------|


Repeat

and now

"I know cause my feet has the scars to show..."

Guitar 1 plays:

(very unsure, but I can't find a better way to play. sounds pretty good anyways.)

E|--------------------------------------------------|
B|--------------------------------------------------|
G|--10-10-10-10--9-9-9-9--10-10-10-10--12-12-12-12--|
D|--x--x--x--x---x-x-x-x--x--x--x--x---x--x--x--x---|
A|--8--8--8--8---7-7-7-7--8--8--8--8---10-10-10-10--|
D|--------------------------------------------------|

Sry, I can't hear what guitar 2 is playing, if it is playing something..
maybe it's playing the same as guitar 1?

"...and no place to call home."

E|--0-0-0-0-0-0-0-0-0-0-0-0--0-0-0-0-0-0-0-0-0-0-0---|
B|--6-6-6-6-6-6-6-6-6-6-6-6--6-6-6-6-6-6-6-6-6-6-6---|
G|--9-9-9-9-9-9-9-9-9-9-9-9--7-7-7-7-7-7-7-7-7-7-7---|
D|--7-7-7-7-7-7-7-7-7-7-7-7--7-7-7-7-7-7-7-7-7-7-7---|
A|--0-0-0-0-0-0-0-0-0-0-0-0--0-0-0-0-0-0-0-0-0-0-0---|
D|---------------------------------------------------|

Pre Chours

I THINK it's just guitar 2 playing here, and I think it is something like this:


E|--------------------------------------------------------------------|
B|--------------------------------------------------------------------|
G|--12-12-12-12-12-12-12-12-12--10-10-10-10-10-10-10-10-10-10-10-10---|
D|--12-12-12-12-12-12-12-12-12--12-12-12-12-12-12-12-12-12-12-12-12---|
A|--------------------------------------------------------------------|
D|--------------------------------------------------------------------|


Now, verse, where spencer comes in...


"It's time for you to press on"


Both guitars, or just guitar 1.

E|-----------------|
B|-----------------|
G|-----------------|
D|--7---3---0~-----|
A|--7---3---0~-----|
D|--7---3---0~-----|


"This Is Not your war"

E|----------------------------------|
B|--6---6-----6---------------------|
G|--9---9-----9---------------------|
D|-----------------7---3-----0~-----|
A|-----------------7---3-----0~-----|
D|-----------------7---3-----0~-----|

"Set your sigts. set your sigts to north"

E|----------------------------|
B|----------------------------|
G|----------------------------|
D|--x-x-x-x---7---3---0~------|
A|--x-x-x-x---7---3---0~------|
D|--x-x-x-x---7---3---0~------|


"Press on, press on"

E|------------------|
B|------------------|
G|------------------|
D|--0---0---0~------|
A|--0---0---0~------|
D|--0---0---0~------|
   P.M P.M


And now, the last time Spencer screams "Press on", you play like this:

E|---------|
B|--6------|
G|--9B-----|
D|---------|
A|---------|
D|---------|


Chorus:


"Cause in this place we're all as good as...."


E|---------------------------------------|
B|---------------------------------------|
G|---------------------------------------|
D|--7-7-7-7-7-7--5-5-5-5-5-5--3-3-3-3-3--|
A|--7-7-7-7-7-7--5-5-5-5-5-5--3-3-3-3-3--|
D|--7-7-7-7-7-7--5-5-5-5-5-5--3-3-3-3-3--|

"... dead..."

E|------------------|
B|------------------|
G|------------------|
D|--0---0---0~------|
A|--0---0---0~------|
D|--0---0---0~------|
   P.M P.M


"end cycle"

E|----------------------|
B|----------------------|
G|----------------------|
D|--0-0-0-0-0-0-0-0-0---|
A|--0-0-0-0-0-0-0-0-0---|
D|--0-0-0-0-0-0-0-0-0---|

Then repeat the same, and then end on a C (000xxx)


Outro:

Guitar 1:

E|--0~-------0~-----------------------|
B|--6~-------6~-------6~--------------|
G|--9~-------7~-------x~--------------|
D|--7~-------7~-------5~-------7~-----|
A|--0~-------0~-------5~-------7~-----|
D|--------------------5~-------7~-----|

Guitar 2:

Start play when Guitar 1 strums the last chord

E|--5~--------3~-----------|--(5~)-----------(8~)------------|
B|----3---1-------3----1---|-----(3)----(1)------------------|
G|-------------------------|-------------------(7)----(1)----|
D|-------------------------|---------------------------------|
A|-------------------------|---------------------------------|
D|-------------------------|---------------------------------|




         At the  end of the road you'll find what you've belonging for
E|------------------------------------------------------------------------|
B|------------------------------------------------------------------------|
G|------------------------------------------------------------------------|
D|-3-3-3~-------5-5-5~------------7-7-7~-------5-5-5~-----------3-3-3~----|
A|-3-3-3~-------5-5-5~------------7-7-7~-------5-5-5~-----------3-3-3~----|
D|-3-3-3~-------5-5-5~------------7-7-7~-------5-5-5~-----------3-3-3~----|  Keep on 
like this

Guitar 2 plays:

E|---------------------------------------|
B|---------------------------------------|
G|---7-9-5--------5-7-3--------9-10-7----|
D|---------------------------------------|
A|---------------------------------------|
D|---------------------------------------|

Now, at the very end, I think it's synth playing, but I tabbed it anyway:


E|--8~------------------------6~------------------5~-------------|
B|---------------------------------------------------------------|
G|---------------------------------------------------------------|
D|---------------------------------------------------------------|
A|---------------------------------------------------------------|
D|---------------------------------------------------------------|






So here it is :) I know the tab is far away from perfect, but I tried to tab the rythm 
in the intro and first verse. So, I hope it helped a little bit.. :)

            
            
Suggest correction
Creating personal tab
Creating personal tab
You can edit any tab online and save it as your Personal.

You can edit, replace or remove any tab part or add personal notes – all changes will be seen only by you.

Personal tabs can be accessed anytime from any device, even offline.
Learn more »
Give kudos to tab author, rate the tab!
1 2 3 4 5
comments
print report bad tab
guest
You may want to rate the tab now too:
select rating
Wanna post a correction for this tab? Suggest correction