Oops, an error
Loading. Please wait.

To Whom It May Concern tab

version 4
version 4

Whole song

Interactive

3,394 views 3 this week
2 commentsread comments
1 2 3 4 5
x 3
add to favorites
×
Save as Personal and add changes to this tab that will be seen only by you. Learn more ›
×
You can save this tab as Personal to edit and correct it or add notes. All changes will be seen only by you. Learn more »
launch autoscroll
font size
0
reset
how to read this tab
guitar tuner
edit
Autoscroll
slow
fast
+/-
esc
set tempo
stop
Artist-Underoath
Song- To Whom It May Concern
Album-Define The Great Line
Year-2006


   This song is tricky to hear but I think this is right. Enjoy!

  Intro

   E|---0------0------0------5-------3---------|
   B|---6------8------3---------3-------3------|
   G|---7------7------5------------1-------1---|
   D|---0------0------0------------------------|           
   A|------------------------------------------|
   D|------------------------------------------|


   E|---0------0------0------0-------3--------|
   B|---6------8------3---------3------3------|
   G|---7------7------5------------1------1---| 
   D|---0------0------0-----------------------|
   A|-----------------------------------------|
   D|-----------------------------------------|

    Piano comes in

    Guitar 1

    |---0------8--------5--------------0-----------5---------|
    |---6---------6--------6------6/8-----------8-----5------|
    |---7------------7--------7--------------5-----------5---|
    |---0----------------------------------------------------|
    |--------------------------------------------------------|
    |--------------------------------------------------------|

    Guitar 2

    |---0------0------0------0---|
    |---6------8------3------6---|
    |---7------7------5------5---|
    |---0------0------0------0---|
    |----------------------------|
    |----------------------------|

    Guitar 1

    |---0---------------5--------------0------0---------3-----------|
    |---6------8---6-------6------6/8------------3---1------3---1---|    
    |---7-------------7--------7------------------------------------|
    |---0-----------------------------------------------------------|
    |---------------------------------------------------------------|
    |---------------------------------------------------------------|

    Guitar 2

    |---0------0------0------0---|
    |---6------8------3------6---|
    |---7------7------5------5---|
    |---0------0------0------0---|
    |----------------------------|
    |----------------------------|

    Guitar 1

    |---15--15--15----15---15--15----12--12--12---12-12-12---------------|
    |---17--17--17----13---13--13----13--13--13----8--8--8--6--6--6--6---|
    |--------------------------------------------------------------------|
    |--------------------------------------------------------------------|
    |--------------------------------------------------------------------|
    |--------------------------------------------------------------------|

    Guitar 2

    |--12---------12---------12---------12---------|
    |---x (x 16)--x--(x 16)--x--(x 16)--x--(x 16)--|
    |---7---------12---------10---------12---------|       x2
    |----------------------------------------------|
    |----------------------------------------------|
    |----------------------------------------------|

    Both Guitars
   "so hold your head up high..."

    |---5-----8------------------------3-----------|
    |------6---------6--6--5b-----3----------------|
    |--------------------------------5---------0---|
    |----------------------------------------------|
    |----------------------------------------------|
    |----------------------------------------------|

    |--5----8--------------------------3---------------------|
    |-----6--------6--6--5b------3---------------------------|
    |-------------------------------5---------0---7----------|
    |------------------------------------------------7--10---|
    |--------------------------------------------------------|
    |--------------------------------------------------------|

    |--5----8--------------------------3--------------|
    |-----6--------6--6--5b------3------------0---1---|
    |-------------------------------5-----------------|
    |-------------------------------------------------|
    |-------------------------------------------------|

    |--5----8---------------------------3---------------------|
    |-----6--------6--6--5b------3----------------------------|
    |--------------------------------5---------0---7----------|
    |-------------------------------------------------7--10---|
    |---------------------------------------------------------|
    |---------------------------------------------------------|

    "I know cause my feet have the scars to show..."

    Guitar 1

   |------------------------------------------------------------|
   |------------------------------------------------------------|
   |---0---7----------0--7---------0---7---------0---7----------|
   |----------7--10--------7--10---------7--10----------7--7b---|
   |------------------------------------------------------------|
   |------------------------------------------------------------|

   Guitar 2

   |-------------------------------------|
   |---13---------17---------17----------|
   |---10-(x 16)--12-(x 16)--17-(x 32)---|
   |-------------------------------------|
   |-------------------------------------|
   |-------------------------------------|

   Guitar 1

   |-----------------------------------------------------------------------|
   |-------------------------------------------------------6-6-6-6-6-6-6-6-|
   |---0---7--------0---7---------9--9--9--9--9--9--9--9--9-9-9-9-9-9-9-9--|
   |---------7--10---------7--10-------------------------------------------|
   |-----------------------------------------------------------------------|
   |-----------------------------------------------------------------------|
   

   Guitar 2

   |-------------------------------------|
   |---13---------17---------18----------|
   |---10-(x 16)--12-(x 32)--12-(x 16)---|
   |-------------------------------------|
   |-------------------------------------|
   |-------------------------------------|

   Guitar 1

   |---------------------------------------------------------------------|
   |---------------------------------------------------------------------|
   |--10--10--10-10-10-10--10-10--10--12--12--12-12-12-15--15--15-15-15--|
   |--12--12--12-12-12-12--12-12--12--12--12--12-12-12-12--12--12-12-12--|x4
   |---------------------------------------------------------------------|
   |---------------------------------------------------------------------|

   Both Guitars
   Spencer screams

   |---------------------------------------------------------------|
   |-----------------------------6----6----------------------------|
   |-----------------------------9----9----------------------------|
   |---7--3--0------7--3--0--------0----0---7--3--0------7--3--0---|
   |---7--3--0------7--3--0--------0----0---7--3--0------7--3--0---|
   |---7--3--0------7--3--0--------0----0---7--3--0------7--3--0---|


   |----------------------------------------------------|
   |----------------------------------------------------|
   |----------------------------------------------------|
   |---0--0--0------0--0--0------0--0--0------0--0--0---|
   |---0--0--0------0--0--0------0--0--0------0--0--0---|
   |---0--0--0------0--0--0------0--0--0------0--0--0---|
      --PM--       --PM--       --PM--       --PM--

   "cause in this place we're all as good as dead..."

   Guitar 1

   |-------------------------------------------------------------|
   |-------------------------------------------------------------|
   |-------------------------------------------------------------|
   |---------------------------------------------------0--0--0---|  x2
   |---------------------------------------------------0--0--0---|
   |---7--7--7--7--7--7--7--7--9--9--9--9--9--9--9--9--0--0--0---|
                                                      --PM--

   Guitar 2

   |--------------------------------------------------------------|
   |--------------------------------------------------------------|
   |--------------------------------------------------------------|
   |----------------------------------------------------0--0--0---|  x2
   |----------------------------------------------------0--0--0---|
   |---7--7--7--7--7--7--7--7--5--5--5--5--3--3--2--2---0--0--0---|
                                                       --PM--

   Guitar 1

   |-----------------------------------------------------------------|
   |--------------------------------------5-5-5-5-5-5-5-5-5-5-5-5-5--|
   |--------5-5-5------7-7-7-7-7-7-7-5-5-5---------------------------|
   |---7-7-7------7-7-7----------------------------------------------|
   |-----------------------------------------------------------------|
   |-----------------------------------------------------------------|

   Guitar 2

   |-----------------------------------|
   |-----------------------------------|
   |-----------------------------------|
   |-----------------------------------|
   |-----------------------------------|
   |---7-(x 16)--10-(x 16)--0-(x 32)---|

   
   |----------|
   |----------|
   |----------|
   |---0------|
   |---0------|
   |---0------|

  Outro
  Same bit as the intro
  "at the end of the road..."

  There may be a few incorrect bits but nothing major. please comment and  rate! Underoath rules!!

            
            
Suggest correction
Creating personal tab
Creating personal tab
You can edit any tab online and save it as your Personal.

You can edit, replace or remove any tab part or add personal notes – all changes will be seen only by you.

Personal tabs can be accessed anytime from any device, even offline.
Learn more »
Give kudos to tab author, rate the tab!
1 2 3 4 5
comments
print report bad tab
2 comments total.
0 reply
someguy9d 10 Jul 28, 2009 12:36 PM

this is the best tab on here for this song. nice job and keep tabing. underoath XD.

0 reply
5P4N0 10 Sep 28, 2010 04:53 PM

for the intro part on the G string it should be a 2 not 1

guest
You may want to rate the tab now too:
select rating
Wanna post a correction for this tab? Suggest correction