Oops, an error
Loading. Please wait.

Without You Im Lost bass

275 views 1 this week
2 commentsread comments
1 2 3 4 5
3 more votes to show rating
add to favorites
×
Save as Personal and add changes to this tab that will be seen only by you. Learn more ›
×
You can save this tab as Personal to edit and correct it or add notes. All changes will be seen only by you. Learn more »
launch autoscroll
font size
0
reset
guitar tuner
edit
Autoscroll
slow
fast
+/-
esc
set tempo
stop
Author
h= Hammer on
p= Pull off

D|4-0-0-0-2-0-0-0-4h5p4-|
A|----------------------|
D|----------------------|
G|----------------------|


D|4-0-0-0-2-0-0-0-4h5p4-7-|let it ring
A|------------------------|
D|------------------------|
G|------------------------|


D|4-0-0-0-2-0-0-0-4h5p4-|
A|----------------------|
D|----------------------|
G|----------------------|


D|4-0-0-0-2-0-0-0-4h5p4-7-|let it ring
A|------------------------|
D|------------------------|
G|------------------------|

D|3-3-3-3-3-3-3-3-3--------------------------------------|
A|-----------------2-2-2-2-2-2-2-2-3-3-3-3-3-3-3-3-3-3-3-|
D|-------------------------------------------------------|   (2x)
G|-------------------------------------------------------|

            
            
Suggest correction
Creating personal tab
Creating personal tab
You can edit any tab online and save it as your Personal.

You can edit, replace or remove any tab part or add personal notes – all changes will be seen only by you.

Personal tabs can be accessed anytime from any device, even offline.
Learn more »
Give kudos to tab author, rate the tab!
1 2 3 4 5
comments
print report bad tab
2 comments total.
0 reply
HH_Emo_666 242 Apr 04, 2007 09:16 AM

i never heard of this song? and its upside down

0 reply
SwollenEyeballs 133 Sep 09, 2008 09:56 AM

i never heard of it either....i wonder if the tabber didn't know the title but heard them say/scream 'without you im lost' a few times and guessed it as the title.....lol yeah the tab is upside down....


h= Hammer on
p= Pull off

G|----------------------|
D|----------------------|
A|----------------------|
D|4-0-0-0-2-0-0-0-4h5p4-|

G|------------------------|
D|------------------------|
A|------------------------|
D|4-0-0-0-2-0-0-0-4h5p4-7-|let it ring

G|----------------------|
D|----------------------|
A|----------------------|
D|4-0-0-0-2-0-0-0-4h5p4-|

G|------------------------|
D|------------------------|
A|------------------------|
D|4-0-0-0-2-0-0-0-4h5p4-7-|let it ring

G|--------------------------------------------------------|
D|--------------------------------------------------------| (2x)
A|------------------2-2-2-2-2-2-2-2-3-3-3-3-3-3-3-3-3-3-3-|
D|3-3-3-3-3-3-3-3-3---------------------------------------|


there we go...its all 'right-side up' now. =D

guest
You may want to rate the tab now too:
select rating
Wanna post a correction for this tab? Suggest correction