Oops, an error
Loading. Please wait.

Stronghold tab

version 1
version 1

Whole song

by Unearth
965 views 1 this week
no commentswrite comment
1 2 3 4 5
3 more votes to show rating
add to favorites
×
Save as Personal and add changes to this tab that will be seen only by you. Learn more ›
×
You can save this tab as Personal to edit and correct it or add notes. All changes will be seen only by you. Learn more »
launch autoscroll
font size
0
reset
how to read this tab
guitar tuner
edit
Autoscroll
slow
fast
+/-
esc
set tempo
stop
Author
TUNING: DROP B

KEY:
. Palm Mute
/ Slide
~ Let Ring
X Deaden String
you know, the standard stuff.

INTRO
X2
|----------------------------------------------------------------|
|----------------------------------------------------------------|
|---------------------------------------------------8------------|
|----11-10-11-----11-10-8--------11-10-8----8-10-11---11-10-8----|
|-8------------9----------11-------------11-------------------11-|
|----------------------------11----------------------------------|
|                                                                |
|----------------------------------------------------------------|
|----------------------------------------------------------------|
|----------------------------6-----------------------------------|
|-3------------4-------------6--------------6---------4----------|
|-3------------4-------------4--------------6---------4----------|
|-3------------4----------------------------6---------4----------|

X2
|----------------------------------------------------------------|
|----------------------------------------------------------------|
|---------------------------------------------------8------------|
|----11-10-11-----11-10-8--------11-10-8----8-10-11---11-10-8----|
|-8------------9----------11-------------11-------------------11-|
|----------------------------11----------------------------------|
|                                                                |
|----------------------------------------------------------------|
|----------------------------------------------------------------|
|----------------------------6-----------------------------------|
|---------3----4-------------6--------------6---------4----------|
|-3-3-3-3-3----4-------------4--------------6---------4----------|
|-3-3-3-3-3----4----------------------------6---------4----------|
  . . . .

VERSE
|------------------------------------------------------------------|
|------------------------------------------------------------------|
|-----------------------------------------------7------------------|
|------7-5-----------5-----5-7-5--------------5---10-8-7-----------|
|-5555-----8-7-5-7-8---7-8------------7-5-7-8------------10-8-7----|
|--------------------------------8888---------------------------10-|
| ....                           ....                              |
|------------------------------------------------------------------|
|------------------------------------------------------------------|
|-7----------------------------------------------------------------|
|-7------------------------------8-88-888-8------------------------|
|-5------------------------------8-88-888-8------------------------|
|--------------------------------8-88-888-8------------------------|

|------------------------------------------------------------------|
|------------------------------------------------------------------|
|-----------------------------------------------7------------------|
|------7-5-----------5-----5-7-5--------------5---10-8-7-----------|
|-5555-----8-7-5-7-8---7-8------------7-5-7-8------------10-8-7----|
|--------------------------------8888---------------------------10-|
| ....                           ....                              |
|------------------------------------------------------------------|
|------------------------------------------------------------------|
|-7-7-7-7-7-7-7-7-7-7-7-7-7-7-7-7----------------------------------|
|-7-7-7-7-7-7-7-7-7-7-7-7-7-7-7-7-8-8-8-8-8-8-8-8-8-8-8-8-8-8-8-8--|
|-5-5-5-5-5-5-5-5-5-5-5-5-5-5-5-5-8-8-8-8-8-8-8-8-8-8-8-8-8-8-8-8--|
|---------------------------------8-8-8-8-8-8-8-8-8-8-8-8-8-8-8-8--|

|------------------------------------------------------------------|
|------------------------------------------------------------------|
|-----------------------------------------------7------------------|
|------7-5-----------5-----5-7-5--------------5---10-8-7-----------|
|-5555-----8-7-5-7-8---7-8------------7-5-7-8------------10-8-7----|
|--------------------------------8888---------------------------10-|
| ....                           ....                              |
|------------------------------------------------------------------|
|------------------------------------------------------------------|
|-7-7-7-7-7-7-7-7-7-7-7-7-7-7-7-7----------------------------------|
|-7-7-7-7-7-7-7-7-7-7-7-7-7-7-7-7-8-8-8-8-8-8-8-8-8-8-8-8-8-8-8-8--|
|-5-5-5-5-5-5-5-5-5-5-5-5-5-5-5-5-8-8-8-8-8-8-8-8-8-8-8-8-8-8-8-8--|
|---------------------------------8-8-8-8-8-8-8-8-8-8-8-8-8-8-8-8--|


|------------------------------------------------------------------|
|------------------------------------------------------------------|
|-----------------------------------------------7------------------|
|------7-5-----------5-----5-7-5--------------5---10-8-7-----------|
|-5555-----8-7-5-7-8---7-8------------7-5-7-8------------10-8-7----|
|--------------------------------8888---------------------------10-|
| ....                           ....                              |
|------------------------------------------------------------------|
|------------------------------------------------------------------|
|-7-7-7-7-7-7-7-7-7-7-7-7-7-7-7-7-12121212121212121414141414141414-|
|-7-7-7-7-7-7-7-7-7-7-7-7-7-7-7-7-X-X-X-X-X-X-X-X-X-X-X-X-X-X-X-X--|
|-5-5-5-5-5-5-5-5-5-5-5-5-5-5-5-5-10101010101010101212121212121212-|
|------------------------------------------------------------------|

|------------------------------------------------------------------|
|------------------------------------------------------------------|
|-----------------------------------------------7------------------|
|------7-5-----------5-----5-7-5--------------5---10-8-7-----------|
|-5555-----8-7-5-7-8---7-8------------7-5-7-8------------10-8-7----|
|--------------------------------8888---------------------------10-|
| ....                           ....                              |
|------------------------------------------------------------------|
|------------------------------------------------------------------|
|-7-7-7-7-7-7-7-7-7-7-7-7-7-7-7-7----------------------------------|
|-7-7-7-7-7-7-7-7-7-7-7-7-7-7-7-7-1010101010101010-8-8-8-8-8-8-8-8-|
|-5-5-5-5-5-5-5-5-5-5-5-5-5-5-5-5-1010101010101010-8-8-8-8-8-8-8-8-|
|---------------------------------1010101010101010-8-8-8-8-8-8-8-8-|

CHORUS
X4
|----------------------------------------------------------------------|
|----------------------------------------------------------------------|
|----------------------------------------------------------------------|
|-7/8/7-------7/8/7---7---7-10-8----7/8/7-------7/8---------7-8-7------|
|-5/6/5-0-0-0-5/6/5-0---0--------10-5/6/5-0-0-0-5/6-10-8-10-------8-10-|
|-------0-0-0-------0---0-----------------0-0-0------------------------|
|       . . .       .   .                 . . .                        |
|----------------------------------------------------------------------|
|----------------------------------------------------------------------|
|----------------------------------------------------------------------|
|-7/8/7-------7/8/7---7---7-10-8----7/8/7-------7/8---------7-8-7------|
|-5/6/5-0-0-0-5/6/5-0---0--------10-5/6/5-0-0-0-5/6-10-8-10-------8-10-|
|-------0-0-0-------0---0-----------------0-0-0------------------------|
        . . .       .   .                 . . .

FILL
X3
|---------------------------------------------|
|---------------------------------------------|
|---------------------------------------------|
|--------8--7---------8--7--5--7--8--5--11-10-|
|--------6--5---------6--5--3--5--6--3--9--8--|
|-000000-------000000-------------------------|
| ......       ......                         |
|---------------------------------------------|
|---------------------------------------------|
|---------------------------------------------|
|--------8--7---------8--7--5--7--8--5--11-10-|
|--------6--5---------6--5--3--5--6--3--9--8--|
|-000000-------000000-------------------------|
  ......       ......

|------------------------------------------|
|------------------------------------------|
|------------------------------------------|
|--------8--7---------8--7--5--7--8--5--11-|
|--------6--5---------6--5--3--5--6--3--9--|
|-000000-------000000----------------------|
| ......       ...... .  .  .  .  .  .  .  |
|------------------------------------------|
|------------------------------------------|
|------------------------------------------|
|--------8--7---------8--7--5--7--8--5--11-|
|--------6--5---------6--5--3--5--6--3--9--|
|-000000-------000000----------------------|
  ......       ...... .  .  .  .  .  .  .

VERSE
|------------------------------------------------------------------|
|------------------------------------------------------------------|
|-----------------------------------------------7------------------|
|------7-5-----------5-----5-7-5--------------5---10-8-7-----------|
|-5555-----8-7-5-7-8---7-8------------7-5-7-8------------10-8-7----|
|--------------------------------8888---------------------------10-|
| ....                           ....                              |
|------------------------------------------------------------------|
|------------------------------------------------------------------|
|-7-7-7-7-7-7-7-7-7-7-7-7-7-7-7-7----------------------------------|
|-7-7-7-7-7-7-7-7-7-7-7-7-7-7-7-7-8-8-8-8-8-8-8-8-8-8-8-8-8-8-8-8--|
|-5-5-5-5-5-5-5-5-5-5-5-5-5-5-5-5-8-8-8-8-8-8-8-8-8-8-8-8-8-8-8-8--|
|---------------------------------8-8-8-8-8-8-8-8-8-8-8-8-8-8-8-8--|

|------------------------------------------------------------------|
|------------------------------------------------------------------|
|-----------------------------------------------7------------------|
|------7-5-----------5-----5-7-5--------------5---10-8-7-----------|
|-5555-----8-7-5-7-8---7-8------------7-5-7-8------------10-8-7----|
|--------------------------------8888---------------------------10-|
| ....                           ....                              |
|------------------------------------------------------------------|
|------------------------------------------------------------------|
|-7-7-7-7-7-7-7-7-7-7-7-7-7-7-7-7----------------------------------|
|-7-7-7-7-7-7-7-7-7-7-7-7-7-7-7-7-8-8-8-8-8-8-8-8-8-8-8-8-8-8-8-8--|
|-5-5-5-5-5-5-5-5-5-5-5-5-5-5-5-5-8-8-8-8-8-8-8-8-8-8-8-8-8-8-8-8--|
|---------------------------------8-8-8-8-8-8-8-8-8-8-8-8-8-8-8-8--|


|------------------------------------------------------------------|
|------------------------------------------------------------------|
|-----------------------------------------------7------------------|
|------7-5-----------5-----5-7-5--------------5---10-8-7-----------|
|-5555-----8-7-5-7-8---7-8------------7-5-7-8------------10-8-7----|
|--------------------------------8888---------------------------10-|
| ....                           ....                              |
|------------------------------------------------------------------|
|------------------------------------------------------------------|
|-7-7-7-7-7-7-7-7-7-7-7-7-7-7-7-7-12121212121212121414141414141414-|
|-7-7-7-7-7-7-7-7-7-7-7-7-7-7-7-7-X-X-X-X-X-X-X-X-X-X-X-X-X-X-X-X--|
|-5-5-5-5-5-5-5-5-5-5-5-5-5-5-5-5-10101010101010101212121212121212-|
|------------------------------------------------------------------|

|------------------------------------------------------------------|
|------------------------------------------------------------------|
|-----------------------------------------------7------------------|
|------7-5-----------5-----5-7-5--------------5---10-8-7-----------|
|-5555-----8-7-5-7-8---7-8------------7-5-7-8------------10-8-7----|
|--------------------------------8888---------------------------10-|
| ....                           ....                              |
|------------------------------------------------------------------|
|------------------------------------------------------------------|
|-7-7-7-7-7-7-7-7-7-7-7-7-7-7-7-7----------------------------------|
|-7-7-7-7-7-7-7-7-7-7-7-7-7-7-7-7-1010101010101010-8-8-8-8-8-8-8-8-|
|-5-5-5-5-5-5-5-5-5-5-5-5-5-5-5-5-1010101010101010-8-8-8-8-8-8-8-8-|
|---------------------------------1010101010101010-8-8-8-8-8-8-8-8-|


BREAKDOWN
|-----------------------------------------------------------------|
|-----------------------------------------------------------------|
|-----------------------------------------------------------------|
|-----------------------------------------------------------------|
|-000-000-000-000-000-000-000-000-000-000-000-000-000-000-000-000-|
|-000-000-000-000-000-000-000-000-000-000-000-000-000-000-000-000-|
| ... ... ... ... ... ... ... ... ... ... ... ... ... ... ... ... |
|-----------------------------------------------------------------|
|-----------------------------------------------------------------|
|-----------------------------------------------------------------|
|-----------------------------------------------------------------|
|-000-000-000-000-000-000-000-000-000-000-000-000-000-000-000-000-|
|-000-000-000-000-000-000-000-000-000-000-000-000-000-000-000-000-|
  ... ... ... ... ... ... ... ... ... ... ... ... ... ... ... ...

|-------------------------11-11------------------11-11------|
|---------------------15---------15----------15---------15--|
|-----------------14-----------------14--15-----------------|
|-----------------------------------------------------------|
|-000-000-000-000-------------------------------------------|
|-000-000-000-000-------------------------------------------|
| ... ... ... ... ~~~~~~~~~~~~~~~~~~~~~~~~~~~~~~~~~~~~~~~~~ |
|-----------------------------------------------------------|
|-----------------------------------------------------------|
|-------------------------8--8-------------------8--8-------|
|---------------------12---------12----------12---------12--|
|-000-000-000-000-12-----------------12--13-----------------|
|-000-000-000-000-------------------------------------------|
  ... ... ... ... ~~~~~~~~~~~~~~~~~~~~~~~~~~~~~~~~~~~~~~~~~ 

|---------------------------------|
|---------------------------------|
|---------------------------------|
|---------------------------------|
|-000-000-000-000-000-000-000-000-|
|-000-000-000-000-000-000-000-000-|
| ... ... ... ... ... ... ... ... |
|---------------------------------|
|---------------------------------|
|---------------------------------|
|---------------------------------|
|-000-000-000-000-000-000-000-000-|
|-000-000-000-000-000-000-000-000-|
  ... ... ... ... ... ... ... ...

CHORUS
|----------------------------------------------------------------------|
|----------------------------------------------------------------------|
|----------------------------------------------------------------------|
|-7/8/7-------7/8/7---7---7-10-8----7/8/7-------7/8---------7-8-7------|
|-5/6/5-0-0-0-5/6/5-0---0--------10-5/6/5-0-0-0-5/6-10-8-10-------8-10-|
|-------0-0-0-------0---0-----------------0-0-0------------------------|
|       . . .       .   .                 . . .                        |
|----------------------------------------------------------------------|
|----------------------------------------------------------------------|
|----------------------------------------------------------------------|
|---------------------7---7-10-8----7/8/7-------7/8---------7-8-7------|
|-----------------------0--------10-5/6/5-0-0-0-5/6-10-8-10-------8-10-|
|-----------------------0-----------------0-0-0------------------------|
                        .                 . . .

X3
|----------------------------------------------------------------------|
|----------------------------------------------------------------------|
|----------------------------------------------------------------------|
|-7/8/7-------7/8/7---7---7-10-8----7/8/7-------7/8---------7-8-7------|
|-5/6/5-0-0-0-5/6/5-0---0--------10-5/6/5-0-0-0-5/6-10-8-10-------8-10-|
|-------0-0-0-------0---0-----------------0-0-0------------------------|
|       . . .       .   .                 . . .                        |
|----------------------------------------------------------------------|
|----------------------------------------------------------------------|
|----------------------------------------------------------------------|
|-7/8/7-------7/8/7---7---7-10-8----7/8/7-------7/8---------7-8-7------|
|-5/6/5-0-0-0-5/6/5-0---0--------10-5/6/5-0-0-0-5/6-10-8-10-------8-10-|
|-------0-0-0-------0---0-----------------0-0-0------------------------|
        . . .       .   .                 . . .

BRIDGE
X2
|--------------------------------------|
|--------------------------------------|
|-12------10---8----7------/12----10---|
|-X-------X----X----X-------X-----X----|
|-10------8----6----5------/10----8----|
|--------------------------------------|
|                                      |
|--------------------------------------|
|--------------------------------------|
|-12------10---8----7------/12----10---|
|-X-------X----X----X-------X-----X----|
|-10------8----6----5------/10----8----|
|--------------------------------------|

|-------------------------------------|
|-------------------------------------|
|-12------10---8----7------/12--------|
|-X-------X----X----X-------X---------|
|-10------8----6----5------/10----10--|
|---------------------------------10--|
|                                     |
|-------------------------------------|
|-------------------------------------|
|-12------10---8----7------/12--------|
|-X-------X----X----X-------X---------|
|-10------8----6----5------/10----10--|
|---------------------------------10--|

OUTRO
X4
|---------------------------------------------------------|
|---------------------------------------------------------|
|---------------------------------------------------------|
|-7-------------7-------------8-------------5-------------|
|-5-0-0-0-0-0-0-5-0-0-0-0-0-0-6-0-0-0-0-0-0-3-0-0-0-0-0-0-|
|---0-0-0-0-0-0---0-0-0-0-0-0---0-0-0-0-0-0---0-0-0-0-0-0-|
|   . . . . . .   . . . . . .   . . . . . .   . . . . . . |
|---------------------------------------------------------|
|---------------------------------------------------------|
|---------------------------------------------------------|
|-7-------------7-------------8-------------5-------------|
|-5-0-0-0-0-0-0-5-0-0-0-0-0-0-6-0-0-0-0-0-0-3-0-0-0-0-0-0-|
|---0-0-0-0-0-0---0-0-0-0-0-0---0-0-0-0-0-0---0-0-0-0-0-0-|
    . . . . . .   . . . . . .   . . . . . .   . . . . . . 

X4
|-----------11--11----------------------11--11------------|
|------15------------15------------15------------15-------|
|-14----------------------14--15----------------------15--|
|---------------------------------------------------------|
|---------------------------------------------------------|
|---------------------------------------------------------|

| ~~~~~~~~~~~~~~~~~~~~~~~~~~~~~~~~~~~~~~~~~~~~~~~~~~~~~~~ |
|---------------------------------------------------------|
|---------------------------------------------------------|
|---------------------------------------------------------|
|-7-------------7-------------8-------------5-------------|
|-5-0-0-0-0-0-0-5-0-0-0-0-0-0-6-0-0-0-0-0-0-3-0-0-0-0-0-0-|
|---0-0-0-0-0-0---0-0-0-0-0-0---0-0-0-0-0-0---0-0-0-0-0-0-|
    . . . . . .   . . . . . .   . . . . . .   . . . . . . 

END
|---|
|---|
|---|
|-7-|
|-5-|
|---|

            
            
Suggest correction
Creating personal tab
Creating personal tab
You can edit any tab online and save it as your Personal.

You can edit, replace or remove any tab part or add personal notes – all changes will be seen only by you.

Personal tabs can be accessed anytime from any device, even offline.
Learn more »
Give kudos to tab author, rate the tab!
1 2 3 4 5
comments
print report bad tab
guest
You may want to rate the tab now too:
select rating
Wanna post a correction for this tab? Suggest correction