Oops, an error
Loading. Please wait.

The Great Dividers tab

version 3
version 3

Whole song

Interactive

by Unearth
1,567 views 1 this week
no commentswrite comment
1 2 3 4 5
2 more votes to show rating
add to favorites
×
Save as Personal and add changes to this tab that will be seen only by you. Learn more ›
×
You can save this tab as Personal to edit and correct it or add notes. All changes will be seen only by you. Learn more »
launch autoscroll
font size
0
reset
how to read this tab
guitar tuner
edit
Autoscroll
slow
fast
+/-
esc
set tempo
stop
Author
Difficulty
Since there appear to be no 7 string tabs for this song, here you all go!


Legend
.  - palm mute           /  - slide up to
\  - slide down to       ~  - vibrato
h  - hammer on           b  - Bend
p  - pull off            Suffixes for bend
t  - tap                 f  - full bend    h - half bend
ph - pinched harmonic    q  - quarter bend t - tap bend
*  - see comment         ^  - Hold bend    r release bend
x  - Stuccatto           ~  - vibrato bend
,  - slight palm mute    () - ghost note, sustained note
"  - tremolo note        <> - Trill
?  - pick down to top

Tuning: b E A D G B e

Intro Both Guitars
|---------------|
|---------------|
|---------------|
|---------------|
|-2---x\\-------|
|-2---x\\-------|
|-0---X\\-------|


Intro/Verse
Both Guitars Play X4
|-----------------------------------------------------------------------|
|-----------------------------------------------------------------------|
|-----------------------------------------------------------------------|
|-----------------------------------------------------------------------|
|-------8----------------8----------------------------------------------|
|---7-----8-7-5-7----7-----8-7-5-7---10---10-9h10p9-7-------5----10-8---|
|-0---0------------0---0-----------0----0-------------0-6-0---0-------10|
  .   .            .   .           .    .             .   .   .

|-----------------------------------------------------------------------|
|-----------------------------------------------------------------------|
|-----------------------------------------------------------------------|
|-------8----------------8----------------------------------------------|
|---7-----8-7-5-7----7-----8-7-5-7---10---10-9h10p9-7--------------8-7--|
|-0---0------------0---0-----------0----0--------------0-3-6-8--0-0-----|
  .   .            .   .           .    .              .        . .


Riff 2
Gtr I                  1.       2.
|---------------------|--------|--------|
|---------------------|--------|--------|
|---------------------|--------|--------|
|---------------------|--------|--------|
|---------------------|--------|--------|
|-9----7--9----5--9---|-5---12-|-12--7--|
|-7----5--7----3--7---|-3---10-|-10--5--|

Gtr II
                                            1.      2.
|-----------------------------------------------|--------|----------|
|-----------------------------------------------|--------|----------|
|-----------------------------------------------|--------|----------|
|-9--9-9/10\9--9---9--9-9/10\9--9---9-9/10\9-|-5--12--|-------------|
|-----------------------------------------------|--------|-12---7---|
|-7--7-7/8-\7--7---7--7-7/8-\7--7---7-7/8-\7-|-3--10--|-10---5------|
|---0-0----------0-0-------------0-0------------|--------|----------|
    . .          . .             . .

Riff 3
Gtr I
|-----------------------------------------------------|
|-----------------------------------------------------|
|-----------------------------------------------------|
|-9~------------9~------------9~----------------------|
|-------------------------------------------5---12----|
|-7~------------7~------------7~------------3---10----|
|-----0-0-0-0-0-----0-0-0-0-0-----0-0-0-0-0-----------|
      . . . . .     . . . . .     . . . . .

Gtr II
|-----------------------------------------------------|
|-----------------------------------------------------|
|-----------------------------------------------------|
|-9~------------9~------------9~----------------------|
|-------------------------------------------5---5-----|
|-7~------------7~------------7~------------3---3-----|
|-----0-0-0-0-0-----0-0-0-0-0-----0-0-0-0-0-----------|
      . . . . .     . . . . .     . . . . .

Both Gtrs
|-----------------------------------------------------|
|-----------------------------------------------------|
|-----------------------------------------------------|
|-9~------------9~------------9~----------------------|
|-------------------------------------------12---7----|
|-7~------------7~------------7~------------10---5----|
|-----0-0-0-0-0-----0-0-0-0-0-----0-0-0-0-0-----------|
      . . . . .     . . . . .     . . . . .


Riff 4 X2
Both Gtrs
|------------------------------------------------------------|
|------------------------------------------------------------|
|------------------------------------------------------------|
|------------------------------------------------------------|
|------------------------------------------------------------|
|-2---------------------------2--------------2-----5---8-7-8-|
|-0--0-2-0-3-0----0-0-0-6-5-3-0--0-2-0-3-0-0-0---0---0-------|
     .            . . .          .               .   .

Gtr I
|------------------------------------------------------------|
|------------------------------------------------------------|
|------------------------------------------------------------|
|------------------------------------------------------------|
|------------------------------------------------------------|
|-2---------------------------2--------------7-10-9-10-7-9-5-|
|-0--0-2-0-3-0----0-0-0-6-5-3-0--0-2-0-3-0-0-----------------|
     .            . . .          .

Gtr II
|------------------------------------------------------------|
|------------------------------------------------------------|
|------------------------------------------------------------|
|------------------------------------------------------------|
|--------------------------------------------5---9-7-9-5-7-4-|
|-0---------------------------0------------------------------|
|-0--0-2-0-3-0----0-0-0-6-5-3-0--0-2-0-3-0-0-----------------|
     .            . . .          .


Riff  X2
Gtr I
|---------------------------------------------------------|
|---------------------------------------------------------|
|---------------------------------------------------------|
|---------------------------------------------------------|
|---------------------------------------------------------|
|-2------------------------3------------------------------|
|-0------------------------1------------------------------|

Gtr II
|--------------------------------------------------------------|
|--------------------------------------------------------------|
|--------------------------------------------------------------|
|--------------------------------------------------------------|
|-----9-10-9-7-9--9-10-9-7----10-10-9-------12-10-12-9-10------|
|-2------------------------8----------10-10---------------12-10|
|-0--0-0---------0-0---------0--0------------------------------|
     . .         . .         .  .

Gtr I
|------------------------------------------------------|
|--------------------------------------------------3---|
|------------------------------------------------------|
|----------------------------------------------------5-|
|------------------------------------------------------|
|-7------------------------3-------------------3-3-----|
|-5------------------------1-------------------1-1-----|
                                               . .

Gtr II
|----------------------------------------------------------|
|----------------------------------------------------------|
|----------------------------------------------------------|
|-------------------------------9-7------------------------|
|-----9-10-9-7-9--9-10-9-7----7-----9-10---10-9-7----7-9-10|
|--------------------------8----------------------10-------|
|----0-0---------0-0---------0-0---------------------------|
     . .         .  .        . .


Riff 6 X2
Gtr I
|-----------------------------------------------------|
|-----------------------------------------------------|
|-----------------------------------------------------|
|---------------------------------------------12------|
|------14-12-14----12----------------12-14-15----15---|
|-12------------15----14-15-12-14-15------------------|
|-----------------------------------------------------|

|------------------------------------------------|
|------------------------------------------------|
|------------------------------------------------|
|-15-14-15-12-14----12-------12-14-15-14-12-12---|
|----------------15----14-15---------------------|
|------------------------------------------------|

|----------------------------------------------------------------------------------|
|----------------------------------------------------------------------------------|
|----------------------------------------------------------------------------------|
|-12-10-12-9-10----9-------9-10-12-10-9------10--9--10---12---10-9-----------------|
|---------------12---10-12--------------10--------------------------12-10-12-10-12-|
|----------------------------------------------------------------------------------|


Gtr II
|------------------------------------------|
|------------------------------------------|
|------------------------------------------|
|-----------------------------------7-9----|
|-----10-9-10-7-9-----7------7-9-10-----10-|
|-7----------------10---9-10---------------|
|------------------------------------------|

|------------------------------------------|
|------------------------------------------|
|------------------------------------------|
|----------------------------5-------------|
|-10-10-10-9-10-7-9---7-9-10---10-9--------|
|------------------10---------------10-----|
|------------------------------------------|

|-------------------------------------------------------------------|
|-------------------------------------------------------------------|
|-------------------------------------------------------------------|
|---------------------------7-9-10-9-------9--7--9--10-9-7---------9|
|----------------------9-10----------10-9------------------10-9-10--|
|-10-10-10-10-10-10-10----------------------------------------------|
|-------------------------------------------------------------------|


Riff 7
Gtr I
|---------------------------------------------------------------|
|-----17--18--17-------17--18--17-------17--18--17----18--17----|
|-16---------------16---------------16------------------------16|
|---------------------------------------------------------------|
|---------------------------------------------------------------|
|---------------------------------------------------------------|

Gtr II
|---------------------------------------------------------------------|
|---------------------------------------------------------------------|
|---------------------------------------------------------------------|
|---------------------------------------------------------------------|
|-------------------------------------------------------------x\------|
|-2-----------------------------------------------------------x\------|
|-0-----------------------------------------------------------x\------|


Riff 8
|------------------------------------------------|
|------------------------------------------------|
|------------------------------------------------|
|------------------------------------------------|
|------------------------------------------------|
|-2---2-2--2-2---2---2-2--2-2----2-2-9-2-2-2-10--|
|-0---0-0--0-0---0---0-0--0-0----0-0-7-0-0-0-8---|
  .   . .  . .   .   . .  . .    . .   . . .

|-------------------------------------------------|
|-------------------------------------------------|
|-------------------------------------------------|
|-------------------------------------------------|
|-2---2-2--2-2---2---2-2--2-2----2-2-9-2-2-2-12---|
|-0---0-0--0-0---0---0-0--0-0----0-0-7-0-0-0-10---|
  .   . .  . .   .   . .  . .    . .   . . .

|------------------------------------------------|
|------------------------------------------------|
|------------------------------------------------|
|------------------------------------------------|
|-2---2-2--2-2---2---2-2--2-2----2-2-9-2-2-2-10--|
|-0---0-0--0-0---0---0-0--0-0----0-0-7-0-0-0-8---|
  .   . .  . .   .   . .  . .    . .   . . .

|------------------------------------------------------|
|------------------------------------------------------|
|------------------------------------------------------|
|------------------------------------------------------|
|-2---2-2--2-2---2---2-2--2-2---2---2-2--2-2---2--2--2-|
|-0---0-0--0-0---0---0-0--0-0---0---0-0--0-0---0--0--0-|
  .   . .  . .   .   . .  . .   .   . .  . .   .  .  .

Both Gtrs
Play X4
|------------------------------------------------------------|
|------------------------------------------------------------|
|------------------------------------------------------------|
|------------9--------------10-------------14--------------13|
|------------------------------------------------------------|
|-2---2-2--2-7---2---2-2--2-8---2---2-2--2-12---2---2-2--2-11|
|-0---0-0--0-----0---0-0--0-----0---0-0--0------0---0-0--0---|
  .   . .  .     .   . .  .     .   . .  .      .   . .  .


|--------|
|--------|
|--------|
|--------|
|--------|
|-2------|
|-0------|


Repeat Intro/Verse X2

Fill
|-----------------------------------------------|
|-----------------------------------------------|
|-----------------------------------------------|
|-----------------------------------------------|
|-----------------------------------------------|
|-2----------------------------------5---10-8---|
|-0----------------------------0-6-0---0------10|
                               .   .   .

Riff 9
Gtr I
|-------------------------------------------------------------|
|-------------------------------------------------------------|
|-------------------------------------------------------------|
|-------------------------------------------------------------|
|-------------------------------------------------------------|
|---------------2---------------3-------------2------------8-7|
|-0-0-0-0-0-0-0-0-0-0-0-0-0-0-0-1-0-0-0-0-0-0-0--3-6-8-0-0----|
  . . . . . . .   . . . . . . .   . . . . . .          . .

|----------------------------------------------------------------|
|----------------------------------------------------------------|
|----------------------------------------------------------------|
|----------------------------------------------------------------|
|----------------------------------------------------------------|
|---------------2---------------3-------------2-------5---10-8---|
|-0-0-0-0-0-0-0-0-0-0-0-0-0-0-0-1-0-0-0-0-0-0-0-0-6-0---0------10|
  . . . . . . .   . . . . . . .   . . . . . .   .   .   .

|------------------------------------------------------------|
|------------------------------------------------------------|
|------------------------------------------------------------|
|------------------------------------------------------------|
|------------------------------------------------------------|
|---------------2---------------3-------------------------8-7|
|-0-0-0-0-0-0-0-0-0-0-0-0-0-0-0-1-0-0-0-0-0-0-0-3-6-8-0-0----|
  . . . . . . .   . . . . . . .   . . . . . . .       . .

Riff 10 X2
|--------------------------------------------------------------------|
|--------------------------------------------------------------------|
|--------------------------------------------------------------------|
|--------------------------------------------------------------------|
|--------------------------------------------------------------------|
|---------------222---------------333-------------2-------5---10-8---|
|-0-0-0-0-0-0-0-000-0-0-0-0-0-0-0-111-0-0-0-0-0-0-0-0-6-0---0------10|
  . . . . . . . ... . . . . . . . ... . . . . . .   .   .   .

|----------------------------------------------------------------|
|----------------------------------------------------------------|
|----------------------------------------------------------------|
|----------------------------------------------------------------|
|----------------------------------------------------------------|
|---------------222---------------333-------------2----------8-7-|
|-0-0-0-0-0-0-0-000-0-0-0-0-0-0-0-111-0-0-0-0-0-0-0-3-6-8-0-0----|
  . . . . . . . ... . . . . . . . ... . . . . . .         . .


Fill
|--------|
|--------|
|--------|
|--------|
|--x\\---|  Pick Slide
|--x\\---|
|--X\\---|


Outro
Gtr 1
|-------------------------------------------------------|
|-------------------------------------------------------|
|-------------------------------------------------------|
|-------------------------------------------------------|
|-------------------------------------------------------|
|-2--2--2--2--2--2--2--2--2--2--2--2--2--2--2--2--2--3--|
|-0--0--0--0--0--0--0--0--0--0--0--0--0--0--0--0--0--1--|
  .  .  .  .  .  .  .  .  ?  .  .  .  .  .  .  .  .


|----------------------------------------------------|
|----------------------------------------------------|
|----------------------------------------------------|
|----------------------------------------------------|
|----------------------------------------------------|
|-2--2--2--2--2--2--2--2--2--2--------5-----10-8-----|
|-0--0--0--0--0--0--0--0--0--0--6--0-----0-------10--|
  .  .  .  .  .  .  .  .  ?  .     .     .

|-------------------------------------------------------|
|-------------------------------------------------------|
|-------------------------------------------------------|
|-------------------------------------------------------|
|-------------------------------------------------------|
|-2--2--2--2--2--2--2--2--2--2--2--2--2--2--2--2--2--3--|
|-0--0--0--0--0--0--0--0--0--0--0--0--0--0--0--0--0--1--|
  .  .  .  .  .  .  .  .  ?  .  .  .  .  .  .  .  .


|---------------------------------------------------|
|---------------------------------------------------|
|---------------------------------------------------|
|---------------------------------------------------|
|---------------------------------------------------|
|-2--2--2--2--2--2--2--2--2-----------------8--7--0-|
|-0--0--0--0--0--0--0--0--0--3--6--8--0--0--------0-|
  .  .  .  .  .  .  .  .  ?           .  .


Gtr II
|-------------------------------------------------------|
|-------------------------------------------------------|
|-------------------------------------------------------|
|-------------------------------------------------------|
|-------------------------------------------------------|
|-2--2--2--2--2--2--2--2--2--2--2--2--2--2--2--2--2--3--|
|-0--0--0--0--0--0--0--0-----0--0--0--0--0--0--0--0-----|
  .  .  .  .  .  .  .  .     .  .  .  .  .  .  .  .

|----------------------------------------------------|
|----------------------------------------------------|
|----------------------------------------------------|
|----------------------------------------------------|
|----------------------------------------------------|
|-2--2--2--2--2--2--2--2--2-----------5-----10-8-----|
|-0--0--0--0--0--0--0--0-----0--6--0-----0-------10--|
  .  .  .  .  .  .  .  .     .     .     .

|-------------------------------------------------------|
|-------------------------------------------------------|
|-------------------------------------------------------|
|-------------------------------------------------------|
|-------------------------------------------------------|
|-2--2--2--2--2--2--2--2--2--2--2--2--2--2--2--2--2--3--|
|-0--0--0--0--0--0--0--0-----0--0--0--0--0--0--0--0-----|
  .  .  .  .  .  .  .  .     .  .  .  .  .  .  .  .

|---------------------------------------------------|
|---------------------------------------------------|
|---------------------------------------------------|
|---------------------------------------------------|
|---------------------------------------------------|
|-2--2--2--2--2--2--2--2--2-----------------8--7--0-|
|-0--0--0--0--0--0--0--0-----3--6--8--0--0--------0-|
  .  .  .  .  .  .  .  .              .  .

            
            
Suggest correction
Creating personal tab
Creating personal tab
You can edit any tab online and save it as your Personal.

You can edit, replace or remove any tab part or add personal notes – all changes will be seen only by you.

Personal tabs can be accessed anytime from any device, even offline.
Learn more »
Give kudos to tab author, rate the tab!
1 2 3 4 5
comments
print report bad tab
guest
You may want to rate the tab now too:
select rating
Wanna post a correction for this tab? Suggest correction