Oops, an error
Loading. Please wait.

This Glorious Nightmare tab

version 2
version 2

Whole song

Interactive

by Unearth
1,045 views 1 this week
no commentswrite comment
1 2 3 4 5
3 more votes to show rating
add to favorites
×
Save as Personal and add changes to this tab that will be seen only by you. Learn more ›
×
You can save this tab as Personal to edit and correct it or add notes. All changes will be seen only by you. Learn more »
launch autoscroll
font size
0
reset
how to read this tab
guitar tuner
edit
Autoscroll
slow
fast
+/-
esc
set tempo
stop
#----------------------------------PLEASE NOTE---------------------------------#
#This file is the author's own work and represents their interpretation of the #
#song. You may only use this file for private study, scholarship, or research. #
#------------------------------------------------------------------------------##

                             THIS GLORIOUS NIGHTMARE
                             As recorded by Unearth
                 (From the 2006 Album III: IN THE EYES OF FIRE)

Words by Trevor Phipps

Music by Buz McGrath, Ken Susi
Arranged by Unearth
Transcribed by Jason Londos

Gtr I (B F# B E G# C#) - 'Untitled'
Gtr II (B F# B E G# C#) - 'Untitled'
Gtr III (B F# B E G# C#) - 'Untitled'

    Q=200
   4/4
    Gtr I
    E E S S S S E E S S S S   E E E E E E E E
||--------------------------|-----------------|
||o-------------------------|-----------------|
||--------------------------|-----------------|
||--7-----------------------|---7---5---8---7-|
||o-5-0---------------------|---5---3---6---5-|
||----0-0-0-0-0-0-0-0-0-0-0-|-0---0---0---0---|
|
|   Gtr II
|   E E S S S S E E S S S S   E E E E E E E E
||--------------------------|-----------------|
||o-------------------------|-----------------|
||--------------------------|-----------------|
||--7-----------------------|---7---5---8---7-|
||o-5-0---------------------|---5---3---6---5-|
||----0-0-0-0-0-0-0-0-0-0-0-|-0---0---0---0---|


  +E  E S S S S E E S S S S   E E E E E  E E  E
|---------------------------|---------------------|
|---------------------------|---------------------|
|---------------------------|-----------12---11---|
|-(7)-----------------------|---8---5----x----x---|
|-(5)-0---------------------|---6---3---10----9---|
|-----0-0-0-0-0-0-0-0-0-0-0-|-0---0---0----0------|
|
| +E  E S S S S E E S S S S   E E E E E  E E  E
|---------------------------|---------------------|
|---------------------------|---------------------|
|---------------------------|-----------12---11---|
|-(7)-----------------------|---8---5----x----x---|
|-(5)-0---------------------|---6---3---10----9---|
|-----0-0-0-0-0-0-0-0-0-0-0-|-0---0---0----0------|


   +E  E S S S S E E S S S S   E E E E E E E E
|----------------------------|-----------------|
|----------------------------|-----------------|
|-(11)-----------------------|-----------------|
|--(x)-----------------------|---7---5---8---7-|
|--(9)-0---------------------|---5---3---6---5-|
|------0-0-0-0-0-0-0-0-0-0-0-|-0---0---0---0---|
|
|  +E  E S S S S E E S S S S   E E E E E E E E
|----------------------------|-----------------|
|----------------------------|-----------------|
|-(11)-----------------------|-----------------|
|--(x)-----------------------|---7---5---8---7-|
|--(9)-0---------------------|---5---3---6---5-|
|------0-0-0-0-0-0-0-0-0-0-0-|-0---0---0---0---|


  E E E E E E E E   +E  E E Q  E E +E
|-----------------|----------------------||
|-----------------|---------------------o||
|-----------------|----------------------||
|-8S7---5---7---5-|-(5)-5-5-3--3-3-(3)/--||
|-6S5---3---5---3-|-(3)-3-3-1--1-1-(1)/-o||
|-----0---0---0---|----------------------||
|
| E E E E E E E E   +E  E E Q  E E +E
|-----------------|----------------------||
|-----------------|---------------------o||
|-----------------|----------------------||
|-8S7---5---7---5-|-(5)-5-5-3--3-3-(3)/--||
|-6S5---3---5---3-|-(3)-3-3-1--1-1-(1)/-o||
|-----0---0---0---|----------------------||


    E S S E E E E S S S S   E E E E E E E E
||------------------------|-----------------|
||o-----------------------|-----------------|
||------------------------|-----------------|
||------------------------|---------5-------|
||o-5-------7-8-7---------|---5-7-----7-3-7-|
||----0-0-0-------0-0-0-0-|-0-----0---------|
|
|   E S S E E E E S S S S   E E E E E E E E
||------------------------|-----------------|
||o-----------------------|-----------------|
||------------------------|-----------------|
||------------------------|---------5-------|
||o-5-------7-8-7---------|---5-7-----7-3-7-|
||----0-0-0-------0-0-0-0-|-0-----0---------|


  E S S E E E E S S S S   E E E E E E E E
|-----------------------|-------------------|
|-----------------------|-------------------|
|-----------------------|-------------------|
|-----------------------|---8-7-8-5-7-3-5---|
|-5-------7-8-7---------|-------------------|
|---0-0-0-------8-8-8-8-|-8-----------------|
|
| E S S E E E E S S S S   E E E E E E E E
|-----------------------|-------------------|
|-----------------------|-------------------|
|-----------------------|---7-5-7-3-5-2-3---|
|-----------------------|-------------------|
|-5-------7-8-7---------|-------------------|
|---0-0-0-------8-8-8-8-|-8-----------------|


  E S S E E E E S S S S   E E E E E E E E   E S S E E E E S S E
|-----------------------|-----------------|---------------------|
|-----------------------|-----------------|---------------------|
|-----------------------|-----------------|---------------------|
|-----------------------|---------5-------|---------------------|
|-5-------7-8-7---------|---5-7-----7-3-7-|-5-------7-8-7-------|
|---0-0-0-------0-0-0-0-|-0-----0---------|---0-0-0-------0-0-0-|
|
| E S S E E E E S S S S   E E E E E E E E   E S S E E E E S S E
|-----------------------|-----------------|---------------------|
|-----------------------|-----------------|---------------------|
|-----------------------|-----------------|---------------------|
|-----------------------|---------5-------|---------------------|
|-5-------7-8-7---------|---5-7-----7-3-7-|-5-------7-8-7-------|
|---0-0-0-------0-0-0-0-|-0-----0---------|---0-0-0-------0-0-0-|


  |--3--|  |-3-|  |-3-|  |--3--|    |--3--|  |--3--|  |--3--|  |--3--|
  E  E  E  E E E  E E E  E  E  E    E  E  E  E  E  E  E  E  E  E  E  E
|--------------8-13-8------------|----------------10-15-10----------------||
|------------9--------9----------|-------------11----------11------------o||
|---------10------------10-------|----------12----------------12----------||
|------10------------------10----|-------12----------------------12-------||
|-8-11------------------------11-|-10-13----------------------------13---o||
|--------------------------------|----------------------------------------||
|
| |--3--|  |-3-|  |-3-|  |--3--|    |--3--|  |--3--|  |--3--|  |--3--|
| E  E  E  E E E  E E E  E  E  E    E  E  E  E  E  E  E  E  E  E  E  E
|--------------8-13-8------------|----------------10-15-10----------------||
|------------9--------9----------|-------------11----------11------------o||
|---------10------------10-------|----------12----------------12----------||
|------10------------------10----|-------12----------------------12-------||
|-8-11------------------------11-|-10-13----------------------------13---o||
|--------------------------------|----------------------------------------||


  Q=150
  S S S S S S  Q   E S S S S   S   S Q  E S S Q  E
|----------------------------|-----------------------|
|----------------------------|-----------------------|
|----------------------------|-----------------------|
|--------------7---7---------|-------5--5-----6--6---|
|-0-0---0-0----5---5-0-0---0-|-0-----6--6-0---4--4---|
|-0-0---0-0----------0-0---0-|-0----------0----------|
|
| S S S S S E.   H             H..               S S
|----------------------------|-----------------------|
|----------------------------|-----------------------|
|----------------------------|-----------------------|
|----------------------------|-----------------------|
|-0-0---0-0------------------|-------------------0-0-|
|-0-0---0-0------------------|-------------------0-0-|


  S S S S S S  Q   E S S S S   S S Q  S S S S S S S S S S
|----------------------------|----------------------------|
|----------------------------|----------------------------|
|----------------------------|----------------------------|
|--------------7---7---------|-----3----------------------|
|-0-0---0-0----5---5-0-0---0-|-0---4--0-0-0---0-0---0-0---|
|-0-0---0-0----------0-0---0-|-0------0-0-0---0-0---0-0---|
|
| S S S S S E.   H             W
|----------------------------|----------------------------|
|----------------------------|----------------------------|
|----------------------------|----------------------------|
|----------------------------|----------------------------|
|-0-0---0-0------------------|----------------------------|
|-0-0---0-0------------------|----------------------------|


  S S S S S  S Q  E S S S S    S  S Q  E S S Q  E
|---------------------------|---------------------|
|---------------------------|---------------------|
|---------------------------|---------------------|
|--------------7--7---------|-------5--5-----6--6-|
|-0-0---0-0----5--5-0-0---0-|--0----6--6-0---4--4-|
|-0-0---0-0---------0-0---0-|--0---------0--------|
|
| S S S S H.                  +W
|---------------------------|---------------------|
|---------------------------|---------------------|
|---------------------------|---------------------|
|---------------------------|---------------------|
|-0-0---0-0-----------------|-(0)-----------------|
|-0-0---0-0-----------------|-(0)-----------------|


  S S S S S S   Q  E S S S S   S S Q  S S S S S S S S S S
|----------------------------|-----------------------------|
|----------------------------|-----------------------------|
|----------------------------|-----------------------------|
|---------------7--7---------|-----3-----------------------|
|-0-0---0-0-----5--5-0-0---0-|-0---4--0-0-0---0-0---0-0----|
|-0-0---0-0----------0-0---0-|-0------0-0-0---0-0---0-0----|
|
| S S S S S Q..      S S S S   S S Q  S S S S S S S S S S
|----------------------------|-----------------------------|
|----------------------------|-----------------------------|
|----------------------------|-----------------------------|
|----------------------------|-----------------------------|
|-0-0---0-0----------0-0---0-|-0------0-0-0---0-0---0-0----|
|-0-0---0-0----------0-0---0-|-0------0-0-0---0-0---0-0----|


    S S S S S S Q  E S S S S   S S Q  E S S Q  E
||---------------------------|-------------------|
||o--------------------------|-------------------|
||---------------------------|-------------------|
||--------------7--7---------|-----5--5-----6--6-|
||o-0-0---0-0---5--5-0-0---0-|-0---6--6-0---4--4-|
||--0-0---0-0--------0-0---0-|-0--------0--------|
|
|   S S S S S S Q  E S S S S   S S Q  E S S Q  E
||---------------------------|-------------------|
||o--------------------------|-------------------|
||---------------------------|-------------------|
||--------------7--7---------|-----5--5-----6--6-|
||o-0-0---0-0---5--5-0-0---0-|-0---6--6-0---4--4-|
||--0-0---0-0--------0-0---0-|-0--------0--------|


  S S S S S S Q  E S S S S   S S Q  S S S S S S S S S S   4x
|--------------------------|------------------------------||
|--------------------------|-----------------------------o||
|--------------------------|------------------------------||
|-------------7--7---------|-----3------------------------||
|-0-0---0-0---5--5-0-0---0-|-0---4--0-0-0---0-0---0-0----o||
|-0-0---0-0--------0-0---0-|-0------0-0-0---0-0---0-0-----||
|
| S S S S S S Q  E S S S S   S S Q  S S S S S S S S S S   4x
|--------------------------|------------------------------||
|--------------------------|-----------------------------o||
|--------------------------|------------------------------||
|-------------7--7---------|-----3------------------------||
|-0-0---0-0---5--5-0-0---0-|-0---4--0-0-0---0-0---0-0----o||
|-0-0---0-0--------0-0---0-|-0------0-0-0---0-0---0-0-----||


  Q=200
                          
  W          +W               Pick-Slide
|----------|------------|----------|----------|
|----------|------------|----------|----------|
|----------|------------|----------|----------|
|-0--------|-(0)--------|----------|----------|
|-0--------|-(0)--------|-x////----|-x////----|
|-0--------|-(0)--------|-x////----|-x////----|
|
|                         
| W          +W               Pick-Slide
|----------|------------|----------|----------|
|----------|------------|----------|----------|
|----------|------------|----------|----------|
|-0--------|-(0)--------|----------|----------|
|-0--------|-(0)--------|-x////----|-x////----|
|-0--------|-(0)--------|-x////----|-x////----|



  E E S S S S E E S S S S   E E E E E E E E
|-------------------------|-----------------|
|-------------------------|-----------------|
|-------------------------|-----------------|
|-7-----------------------|---7---5---8---7-|
|-5-0---------------------|---5---3---6---5-|
|---0-0-0-0-0-0-0-0-0-0-0-|-0---0---0---0---|
|
| W                         E E E E E E E E
|-------------------------|-----------------|
|-------------------------|-----------------|
|-------------------------|-----------------|
|-------------------------|---7---5---8---7-|
|-------------------------|---5---3---6---5-|
|-------------------------|-----0---0---0---|


  +E  E S S S S E E S S S S   E E E E E  E E  E
|---------------------------|--------------------|
|---------------------------|--------------------|
|---------------------------|-----------12---11--|
|-(7)-----------------------|---8---5----x----x--|
|-(5)-0---------------------|---6---3---10----9--|
|-----0-0-0-0-0-0-0-0-0-0-0-|-0---0---0----0-----|
|
| +E  E S S S S E E S S S S   E E E E E  E E  E
|---------------------------|--------------------|
|---------------------------|--------------------|
|---------------------------|-----------12---11--|
|-(7)-----------------------|---8---5----x----x--|
|-(5)-0---------------------|---6---3---10----9--|
|-----0-0-0-0-0-0-0-0-0-0-0-|-0---0---0----0-----|


   +E  E S S S S E E S S S S   E E E E E E E E
|----------------------------|-----------------|
|----------------------------|-----------------|
|-(11)-----------------------|-----------------|
|--(x)-----------------------|---7---5---8---7-|
|--(9)-0---------------------|---5---3---6---5-|
|------0-0-0-0-0-0-0-0-0-0-0-|-0---0---0---0---|
|
|  +E  E S S S S E E S S S S   E E E E E E E E
|----------------------------|-----------------|
|----------------------------|-----------------|
|-(11)-----------------------|-----------------|
|--(x)-----------------------|---7---5---8---7-|
|--(9)-0---------------------|---5---3---6---5-|
|------0-0-0-0-0-0-0-0-0-0-0-|-0---0---0---0---|


  E E E E E E E E   +E  E E Q  E E +E
|-----------------|---------------------|
|-----------------|---------------------|
|-----------------|---------------------|
|-8S7---5---7---5-|-(5)-5-5-3--3-3-(3)/-|
|-6S5---3---5---3-|-(3)-3-3-1--1-1-(1)/-|
|-----0---0---0---|---------------------|
|
| E E E E E E E E   +E  E E Q  E E +E
|-----------------|---------------------|
|-----------------|---------------------|
|-----------------|---------------------|
|-8S7---5---7---5-|-(5)-5-5-3--3-3-(3)/-|
|-6S5---3---5---3-|-(3)-3-3-1--1-1-(1)/-|
|-----0---0---0---|---------------------|


  E E S S S S E E S S S S   E E E E E E E E
|-------------------------|-----------------|
|-------------------------|-----------------|
|-------------------------|-----------------|
|-7-----------------------|---7---5---8---7-|
|-5-0---------------------|---5---3---6---5-|
|---0-0-0-0-0-0-0-0-0-0-0-|-0---0---0---0---|
|
| E E S S S S E E S S S S   E E E E E E E E
|-------------------------|-----------------|
|-------------------------|-----------------|
|-------------------------|-----------------|
|-7-----------------------|---7---5---8---7-|
|-5-0---------------------|---5---3---6---5-|
|---0-0-0-0-0-0-0-0-0-0-0-|-0---0---0---0---|


  +E  E S S S S E E S S S S   E E E E E  E E  E
|---------------------------|--------------------|
|---------------------------|--------------------|
|---------------------------|-----------12---11--|
|-(7)-----------------------|---8---5----x----x--|
|-(5)-0---------------------|---6---3---10----9--|
|-----0-0-0-0-0-0-0-0-0-0-0-|-0---0---0----0-----|
|
| +E  E S S S S E E S S S S   E E E E E  E E  E
|---------------------------|--------------------|
|---------------------------|--------------------|
|---------------------------|-----------12---11--|
|-(7)-----------------------|---8---5----x----x--|
|-(5)-0---------------------|---6---3---10----9--|
|-----0-0-0-0-0-0-0-0-0-0-0-|-0---0---0----0-----|


                                                 Q=150
                                                 |-3-| |-3-|
   +E  E S S S S E E S S S S   E E E E E E E E   Q Q Q Q Q Q
|----------------------------|-----------------|-------------|
|----------------------------|-----------------|-------------|
|-(11)-----------------------|-----------------|-------------|
|--(x)-----------------------|---7---5---8---7-|-2-3-5-3-5-7-|
|--(9)-0---------------------|---5---3---6---5-|-0-1-3-1-3-5-|
|------0-0-0-0-0-0-0-0-0-0-0-|-0---0---0---0---|-------------|
|
|                                                |-3-| |-3-|
|  +E  E S S S S E E S S S S   E E E E E E E E   Q Q Q Q Q Q
|----------------------------|-----------------|-------------|
|----------------------------|-----------------|-------------|
|-(11)-----------------------|-----------------|-------------|
|--(x)-----------------------|---7---5---8---7-|-2-3-5-3-5-7-|
|--(9)-0---------------------|---5---3---6---5-|-0-1-3-1-3-5-|
|------0-0-0-0-0-0-0-0-0-0-0-|-0---0---0---0---|-------------|


    |-3-| |-3-|   |3| |-3-| |-3-| |-3-|   |-3-| |3| |3|   |3| |3| |3| |3|
    Q Q Q Q Q Q   Q E E E E E E E E E E   Q Q Q Q E E Q   Q E E Q Q E E Q
||--------------|-----------------------|---------------|-------------------||
||o-------------|-----------------------|---------------|------------------o||
||--------------|-----------------------|---------------|-------------------||
||--------------|-----------------------|-------------5-|-3-----3-5-----5---||
||o-----8-7---3-|-5-------------3-5-3---|-----8-7-----3-|-1-----1-3-----3--o||
||--0-0-----0---|---0-0-0-0-5-7-------5-|-0-0-----0-0---|---0-0-----0-0-----||
|
|   |-3-| |-3-|   |3| |-3-| |-3-| |-3-|   |-3-| |3| |3|   |3| |3| |3| |3|
|   Q Q Q Q Q Q   Q E E E E E E E E E E   Q Q Q Q E E Q   Q E E Q Q E E Q
||--------------|-----------------------|---------------|-------------------||
||o-------------|-----------------------|---------------|------------------o||
||--------------|-----------------------|---------------|-------------------||
||--------------|-----------------------|-------------5-|-3-----3-5-----5---||
||o-----8-7---3-|-5-------------3-5-3---|-----8-7-----3-|-1-----1-3-----3--o||
||--0-0-----0---|---0-0-0-0-5-7-------5-|-0-0-----0-0---|---0-0-----0-0-----||


  |---3---|   |---3---|     |-3-| |-3-| |-3-| |-3-|
  Q   Q   Q   Q   Q   Q     Q   E E E E E E E E E E
|-------------------------|-------------------------|
|-------------------------|-------------------------|
|-------------------------|-------------------------|
|-------------------------|-------------------------|
|---------8---7-------3---|-5---------------3-5-3---|
|-0---0-----------0-------|-----0-0-0-0-5-7-------5-|
|
| |---3---|   |---3---|     |-3-| |-3-| |-3-| |-3-|
| Q   Q   Q   Q   Q   Q     Q   E E E E E E E E E E
|-------------------------|-------------------------|
|-------------------------|-------------------------|
|-------------------------|-------------------------|
|-------------------------|-------------------------|
|---------8---7-------3---|-5---------------3-5-3---|
|-0---0-----------0-------|-----0-0-0-0-5-7-------5-|
|
| Gtr III
| |-3-| |-3-| |-3-| |-3-|   |-3-| |-3-| |-3-| |-3-|
| E E E E E E E E E E E E   E E E E E E E E E E E E
|-------------------------|-------------------------|
|-------------------------|-------------------------|
|-7-7-7-7-7-7-7-7-7-7-7-7-|-7-7-7-7-7-7-9-9-9-9-9-9-|
|-------------------------|-------------------------|
|-5-5-5-5-5-5-5-5-5-5-5-5-|-5-5-5-5-5-5-7-7-7-7-7-7-|
|-------------------------|-------------------------|


  |---3---|   |-3-| |3|      |--3--|  |3-|    |-3-| |3|
  Q   Q   Q   Q   E E Q      Q     E  E  Q    Q   E E Q
|-------------------------|----------------------------------|
|-------------------------|----------------------------------|
|-------------------------|----------------------------------|
|---------------------5---|--3-----------3----5-------5------|
|---------8---7-------3---|--1-----------1----3-------3------|
|-0---0-----------0-0-----|--------0--0-----------0-0--------|
|
| |---3---|   |-3-| |3|      |--3--|  |3-|    |-3-| |3|
| Q   Q   Q   Q   E E Q      Q     E  E  Q    Q   E E Q
|-------------------------|----------------------------------|
|-------------------------|----------------------------------|
|-------------------------|----------------------------------|
|---------------------5---|--3-----------3----5-------5------|
|---------8---7-------3---|--1-----------1----3-------3------|
|-0---0-----------0-0-----|--------0--0-----------0-0--------|
|
| |-3-| |-3-| |-3-| |-3-|    |--3--|  |--3--| |-3-| |-3-|
| E E E E E E E E E E E E    E  E  E  E  E  E E E E E E E
|-------------------------|----------------------------------|
|-------------------------|----------------------------------|
|-7-7-7-7-7-7-7-7-7-7-7-7-|-10-10-10-10-10-10-9-9-9-9-9-9----|
|-------------------------|----------------------------------|
|-5-5-5-5-5-5-5-5-5-5-5-5-|--8--8--8--8--8--8-7-7-7-7-7-7----|
|-------------------------|----------------------------------|


  |---3---|   |---3---|     |-3-| |-3-|  |--3--|  |--3--|
  Q   Q   Q   Q   Q   Q     Q   E E E E  E  E  E  E  E  E
|-------------------------|-------------------------------|
|-------------------------|-------------------------------|
|-------------------------|-------------------------------|
|-------------------------|-------------------------------|
|---------8---7-------3---|-5------------------3--5--3----|
|-0---0-----------0-------|-----0-0-0-0--5--7-----------5-|
|
| |---3---|   |---3---|     |-3-| |-3-|  |--3--|  |--3--|
| Q   Q   Q   Q   Q   Q     Q   E E E E  E  E  E  E  E  E
|-------------------------|-------------------------------|
|-------------------------|-------------------------------|
|-------------------------|-------------------------------|
|-------------------------|-------------------------------|
|---------8---7-------3---|-5------------------3--5--3----|
|-0---0-----------0-------|-----0-0-0-0--5--7-----------5-|
|
| |-3-| |-3-| |-3-| |-3-|   |-3-| |-3-|  |--3--|  |--3--|
| E E E E E E E E E E E E   E E E E E E  E  E  E  E  E  E
|-------------------------|-------------------------------|
|-------------------------|-------------------------------|
|-7-7-7-7-7-7-7-7-7-7-7-7-|-7-7-7-7-7-7-10-10-10-10-10-10-|
|-------------------------|-------------------------------|
|-5-5-5-5-5-5-5-5-5-5-5-5-|-5-5-5-5-5-5--8--8--8--8--8--8-|
|-------------------------|-------------------------------|


  |---3---|   |-3-| |3|      |--3--|  |3-|    |-3-| |3|
  Q   Q   Q   Q   E E Q      Q     E  E  Q    Q   E E Q
|-------------------------|----------------------------------|
|-------------------------|----------------------------------|
|-------------------------|----------------------------------|
|---------------------5---|--3-----------3----5-------5------|
|---------8---7-------3---|--1-----------1----3-------3------|
|-0---0-----------0-0-----|--------0--0-----------0-0--------|
|
| |---3---|   |-3-| |3|      |--3--|  |3-|    |-3-| |3|
| Q   Q   Q   Q   E E Q      Q     E  E  Q    Q   E E Q
|-------------------------|----------------------------------|
|-------------------------|----------------------------------|
|-------------------------|----------------------------------|
|---------------------5---|--3-----------3----5-------5------|
|---------8---7-------3---|--1-----------1----3-------3------|
|-0---0-----------0-0-----|--------0--0-----------0-0--------|
|
| |-3-| |-3-| |-3-| |-3-|    |--3--|  |--3--| |-3-| |-3-|
| E E E E E E E E E E E E    E  E  E  E  E  E E E E E E E
|-------------------------|----------------------------------|
|-------------------------|----------------------------------|
|-7-7-7-7-7-7-7-7-7-7-7-7-|-10-10-10-10-10-10-9-9-9-9-9-9----|
|-------------------------|----------------------------------|
|-5-5-5-5-5-5-5-5-5-5-5-5-|--8--8--8--8--8--8-7-7-7-7-7-7----|
|-------------------------|----------------------------------|


  |-3-| |-3-| |-3-| |-3-|    |-3--| |-3-| |-3-| |-3-|
  E E E SSE E SSE E E E E    E  E E E E E E E E E E E
|-------------------------|---------------------------|
|-------------------------|---------------------------|
|-------------------------|---------------------------|
|-------------------------|--7----5---3-2-3-5-3-2---2-|
|-5-3-5-------------5-3-5-|-----------------------3---|
|-------000-0-000-0-------|-----0---0-----------------|
|
| W                         +W
|-------------------------|---------------------------|
|-------------------------|---------------------------|
|-------------------------|---------------------------|
|-0-----------------------|-(0)-----------------------|
|-0-----------------------|-(0)-----------------------|
|-0-----------------------|-(0)-----------------------|
|
| W                          W
|-------------------------|---------------------------|
|-------------------------|---------------------------|
|-7-----------------------|---------------------------|
|-------------------------|---------------------------|
|-5-----------------------|---------------------------|
|-------------------------|---------------------------|


   |-3--| |-3-| |-3-| |-3-|    |-3--| |-3-| |-3-| |-3-|
   E  E E SSE E SSE E E E E    E  E E E E E E E E E E E
|---------------------------|------------------------------|
|---------------------------|-----------6-5-------5--------|
|---------------------------|---------7-----5---5---5------|
|---------------------------|-------7---------7-------7----|
|--5--3-5-------------5-3-5-|--5--8------------------------|
|---------000-0-000-0-------|------------------------------|
|
| +W                          +W
|---------------------------|------------------------------|
|---------------------------|------------------------------|
|---------------------------|------------------------------|
|-(0)-----------------------|-(0)--------------------------|
|-(0)-----------------------|-(0)--------------------------|
|-(0)-----------------------|-(0)--------------------------|



  |-3-| |-3-| |-3-| |-3-|    |-3--| |-3-| |-3-| |-3-|
  E E E SSE E SSE E E E E    E  E E E E E E E E E E E
|-------------------------|---------------------------|
|-------------------------|---------------------------|
|-------------------------|---------------------------|
|-------------------------|--7----5---3-2-3-5-3-2---2-|
|-5-3-5-------------5-3-5-|-----------------------3---|
|-------000-0-000-0-------|-----0---0-----------------|
|
| +W                        +W
|-------------------------|---------------------------|
|-------------------------|---------------------------|
|-------------------------|---------------------------|
|-(0)---------------------|-(0)-----------------------|
|-(0)---------------------|-(0)-----------------------|
|-(0)---------------------|-(0)-----------------------|


   |-3--| |-3-| |-3-| |-3-|   |-3-| |-3-|
   E  E E SSE E SSE E E E E   E E E E E E E Q.
|---------------------------|----------------------|
|---------------------------|----------------------|
|---------------------------|----------------------|
|---------------------------|-7-5---5--------------|
|--5--3-5-------------5-3-5-|-----8---8-7-5--------|
|---------000-0-000-0-------|----------------------|
|
|                         
| +H.                  Pick-Slide
|---------------------------|----------------------|
|---------------------------|----------------------|
|---------------------------|----------------------|
|-(0)-----------------------|----------------------|
|-(0)-----------------x////-|-x//////////-0--------|
|-(0)-----------------x////-|-x//////////-0--------|


    |-3-| |-3-| |--3-||-3-|   |-3-| |-3-| |--3-||-3-|
    E E E SSE E SSE SSE E E   E E E SSE E SSE SSE E E
||--------------------------|-------------------------|
||o-------------------------|-------------------------|
||--------------------------|-------------------------|
||--------------------------|-------------------------|
||o-5-3-5-000-0-000-000-0-0-|-0-0-0-000-0-000-000-0-0-|
||--------000-0-000-000-0-0-|-0-0-0-000-0-000-000-0-0-|
|
|   |-3-| |-3-| |--3-||-3-|   |-3-| |-3-| |--3-||-3-|
|   E E E SSE E SSE SSE E E   E E E SSE E SSE SSE E E
||--------------------------|-------------------------|
||o-------------------------|-------------------------|
||--------------------------|-------------------------|
||--------------------------|-------------------------|
||o-5-3-5-000-0-000-000-0-0-|-0-0-0-000-0-000-000-0-0-|
||--------000-0-000-000-0-0-|-0-0-0-000-0-000-000-0-0-|


  |-3-| |-3-| |-3-| |-3-|   |-3-| |-3-| |-3-| |-3-|
  E E E SSE E SSE E E E E   E E E E E E E E E E E E
|-------------------------|-----------------------------||
|-------------------------|----------------------------o||
|-------------------------|-----------------------------||
|-------------------------|-7---5---3-2-3-5-3-2---2-----||
|-5-3-5-000-0-000-0-5-3-5-|---------------------3------o||
|-------000-0-000-0-------|---0---0---------------------||
|
| |-3-| |-3-| |-3-| |-3-|   |-3-| |-3-| |-3-| |-3-|
| E E E SSE E SSE E E E E   E E E E E E E E E E E E
|-------------------------|-----------------------------||
|-------------------------|----------------------------o||
|-------------------------|-----------------------------||
|-------------------------|-7---5---3-2-3-5-3-2---2-----||
|-5-3-5-000-0-000-0-5-3-5-|---------------------3------o||
|-------000-0-000-0-------|---0---0---------------------||


  |-3-| |-3-| |-3-| |-3-|    |-3-| |-3-|   |-3-| |-3-|
  E E E E E E E E E E E E    E E E E E E   E E E E E E
|-------------------------|----------------------------|
|-------------------------|----------------------------|
|-------7-5---5-----------|--------8---7---------3-5-7-|
|-----------8---8-7-8-7-5-|----------------------------|
|-5-5-5-------------------|--6-6-6---6-----5-5-5-------|
|-------------------------|----------------------------|
|
| |-3-| |3|
| E E E E Q   H              H             H
|-------------------------|----------------------------|
|-------------------------|----------------------------|
|-------------------------|-/8-----------/12-----------|
|-------------------------|----------------------------|
|-0-0-0-0-----------------|-/6-----------/10-----------|
|-0-0-0-0-----------------|----------------------------|


  |-3-| |-3-| |-3-| |-3-|    |-3-| |-3-|  |-3-| |-3-|
  E E E E E E E E E E E E    E E E E E E  E E E E E E
|-------------------------|------------------------------|
|-------------------------|------------------------------|
|-------7-5---5-----------|------------------------------|
|-----------8---8-7-8-7-5-|--------5---5--------3--------|
|-5-5-5-------------------|--6-6-6---6----5-5-5---6-3----|
|-------------------------|------------------------------|
|
| |-3-| |3|
| E E E E Q   H              H            H
|-------------------------|------------------------------|
|-------------------------|------------------------------|
|-------------------------|-/5-----------/8--------------|
|-------------------------|------------------------------|
|-0-0-0-0-----------------|-/3-----------/6--------------|
|-0-0-0-0-----------------|------------------------------|


  |-3-| |-3-| |-3-| |-3-|   |-3-| |-3-| |-3-| |-3-|
  E E E E E E E E E E E E   E E E E E E E E E E E E
|-------------------------|-------------------------|
|-------------------------|-------------------------|
|-------7-5---5-----------|-------8---7-------3-5-7-|
|-----------8---8-7-8-7-5-|-------------------------|
|-5-5-5-------------------|-6-6-6---6---5-5-5-------|
|-------------------------|-------------------------|
|
| |-3-| |3|
| E E E E Q   H             H           H
|-------------------------|-------------------------|
|-------------------------|-------------------------|
|-------------------------|-------------------------|
|-------------------------|-5-----------3-----------|
|-0-0-0-0-----------------|-3-----------1-----------|
|-0-0-0-0-----------------|-------------------------|


  |-3-| |-3-| |-3-| |-3-|   |-3-| |-3-| |-3-|  |-3-|
  E E E E E E E E E E E E   E E E E E E E E E  E E E
|-------------------------|-----------------------------|
|-------------------------|-----------------------------|
|-------7-5---5-----------|-----------------------------|
|-----------8---8-7-8-7-5-|---5-7-8-7-5---7-8-10-8-7----|
|-5-5-5-------------------|-6-----------8---------------|
|-------------------------|-----------------------------|
|
| |-3-| |3|
| E E E E Q   H             H           H
|-------------------------|-----------------------------|
|-------------------------|-----------------------------|
|-------------------------|-----------------------------|
|-------------------------|-3-----------3---------------|
|-0-0-0-0-----------------|-1-----------3---------------|
|-0-0-0-0-----------------|-------------3---------------|


  |-3-| |-3-| |-3-| |-3-|   |-3-| |-3-|  |-3-| |-3-|
  E E E E E E E E E E E E   E E E E E E  E E E E E E
|-------------------------|--------------------------|
|-------------------------|--------------------------|
|-------7-5---5-----------|-------8---7--------3-5-7-|
|-----------8---8-7-8-7-5-|--------------------------|
|-5-5-5-------------------|-6-6-6---6----5-5-5-------|
|-------------------------|--------------------------|
|
| W                         H            H
|-------------------------|--------------------------|
|-------------------------|--------------------------|
|-------------------------|-8-----------12-----------|
|-0-----------------------|--------------------------|
|-0-----------------------|-6-----------10-----------|
|-0-----------------------|--------------------------|


   |-3-| |-3-| |-3-| |-3-|   |-3-| |-3-| |-3-| |-3-|
   E E E E E E E E E E E E   E E E E E E E E E E E E
|--------------------------|----------------------------|
|--------------------------|----------------------------|
|--------7-5---5-----------|----------------------------|
|------------8---8-7-8-7-5-|-------5---5-------3--------|
|--5-5-5-------------------|-6-6-6---6---5-5-5---6-3----|
|--------------------------|----------------------------|
|
|  W                         H           H
|--------------------------|----------------------------|
|--------------------------|----------------------------|
|-11-----------------------|-5-----------8--------------|
|--------------------------|----------------------------|
|--9-----------------------|-3-----------6--------------|
|--------------------------|----------------------------|


  |-3-| |-3-| |-3-| |-3-|   |-3-| |-3-| |-3-| |-3-|
  E E E E E E E E E E E E   E E E E E E E E E E E E
|-------------------------|-------------------------|
|-------------------------|-------------------------|
|-------7-5---5-----------|-------8---7-------3-5-7-|
|-----------8---8-7-8-7-5-|-------------------------|
|-5-5-5-------------------|-6-6-6---6---5-5-5-------|
|-------------------------|-------------------------|
|
| W                         H           H
|-------------------------|-------------------------|
|-------------------------|-------------------------|
|-7-----------------------|-------------------------|
|-------------------------|-5-----------3-----------|
|-5-----------------------|-3-----------1-----------|
|-------------------------|-------------------------|


  |-3-| |-3-| |-3-| |-3-|   |-3-| |-3-| |-3-|  |-3-|
  E E E E E E E E E E E E   E E E E E E E E E  E E E
|-------------------------|-----------------------------|
|-------------------------|-----------------------------|
|-------7-5---5-----------|-----------------------------|
|-----------8---8-7-8-7-5-|---5-7-8-7-5---7-8-10-8-7----|
|-5-5-5-------------------|-6-----------8---------------|
|-------------------------|-----------------------------|
|
| W                         H           H
|-------------------------|-----------------------------|
|-------------------------|-----------------------------|
|-------------------------|-----------------------------|
|-0-----------------------|-3-----------3---------------|
|-0-----------------------|-1-----------3---------------|
|-0-----------------------|-------------3---------------|


  |-3-| |-3-| |-3-| |-3-|   |-3-| |-3-|  |-3-| |-3-|
  E E E E E E E E E E E E   E E E E E E  E E E E E E
|-------------------------|--------------------------|
|-------------------------|--------------------------|
|-------7-5---5-----------|-------8---7--------3-5-7-|
|-----------8---8-7-8-7-5-|--------------------------|
|-5-5-5-------------------|-6-6-6---6----5-5-5-------|
|-------------------------|--------------------------|
|
|       |-3-| |-3-| |-3-|         |-3-|        |-3-|
| Q     E E E E E E E E E   Q     E E E  Q     E E E
|-------------------------|--------------------------|
|-------------------------|--------------------------|
|-------------------------|-8-----------12-----------|
|-0-----------------------|--------------------------|
|-0-----------------------|-6-----------10-----------|
|-0-----0-0-0-0-0-0-0-0-0-|-------0-0-0--------0-0-0-|


   |-3-| |-3-| |-3-| |-3-|   |-3-| |-3-| |-3-| |-3-|
   E E E E E E E E E E E E   E E E E E E E E E E E E
|--------------------------|----------------------------|
|--------------------------|----------------------------|
|--------7-5---5-----------|----------------------------|
|------------8---8-7-8-7-5-|-------5---5-------3--------|
|--5-5-5-------------------|-6-6-6---6---5-5-5---6-3----|
|--------------------------|----------------------------|
|
|        |-3-| |-3-| |-3-|         |-3-|       |-3-|
|  Q     E E E E E E E E E   Q     E E E Q     E E E
|--------------------------|----------------------------|
|--------------------------|----------------------------|
|-11-----------------------|-5-----------8--------------|
|--------------------------|----------------------------|
|--9-----------------------|-3-----------6--------------|
|--------0-0-0-0-0-0-0-0-0-|-------0-0-0-------0-0-0----|


  |-3-| |-3-| |-3-| |-3-|   |-3-| |-3-| |-3-| |-3-|
  E E E E E E E E E E E E   E E E E E E E E E E E E
|-------------------------|-------------------------|
|-------------------------|-------------------------|
|-------7-5---5-----------|-------8---7-------3-5-7-|
|-----------8---8-7-8-7-5-|-------------------------|
|-5-5-5-------------------|-6-6-6---6---5-5-5-------|
|-------------------------|-------------------------|
|
|       |-3-| |-3-| |-3-|         |-3-|       |-3-|
| Q     E E E E E E E E E   Q     E E E Q     E E E
|-------------------------|-------------------------|
|-------------------------|-------------------------|
|-7-----------------------|-------------------------|
|-------------------------|-5-----------3-----------|
|-5-----------------------|-3-----------1-----------|
|-------0-0-0-0-0-0-0-0-0-|-------0-0-0-------0-0-0-|


  |-3-| |-3-| |-3-| |-3-|   |-3-| |-3-| |-3-|  |-3-|
  E E E E E E E E E E E E   E E E E E E E E E  E E E
|-------------------------|-----------------------------|
|-------------------------|-----------------------------|
|-------7-5---5-----------|-----------------------------|
|-----------8---8-7-8-7-5-|---5-7-8-7-5---7-8-10-8-7----|
|-5-5-5-------------------|-6-----------8---------------|
|-------------------------|-----------------------------|
|
| W                         H           H
|-------------------------|-----------------------------|
|-------------------------|-----------------------------|
|-------------------------|-----------------------------|
|-0-----------------------|-3-----------3---------------|
|-0-----------------------|-1-----------3---------------|
|-0-----------------------|-------------3---------------|


  W          +W           +W           +W           +W           +W
|----------|------------|------------|------------|------------|------------|
|----------|------------|------------|------------|------------|------------|
|----------|------------|------------|------------|------------|------------|
|-5--------|-(5)--------|-(5)--------|-(5)--------|-(5)--------|-(5)--------|
|----------|------------|------------|------------|------------|------------|
|----------|------------|------------|------------|------------|------------|
|
| W          +W           +W           +W           +W           +W
|----------|------------|------------|------------|------------|------------|
|----------|------------|------------|------------|------------|------------|
|----------|------------|------------|------------|------------|------------|
|-0--------|-(0)--------|-(0)--------|-(0)--------|-(0)--------|-(0)--------|
|-0--------|-(0)--------|-(0)--------|-(0)--------|-(0)--------|-(0)--------|
|-0--------|-(0)--------|-(0)--------|-(0)--------|-(0)--------|-(0)--------|


  +W           +W           +W           +W           +W           +W
|------------|------------|------------|------------|------------|--------|
|------------|------------|------------|------------|------------|--------|
|------------|------------|------------|------------|------------|--------|
|-(5)--------|-(5)--------|-(5)--------|-(5)--------|-(5)--------|-(5)----|
|------------|------------|------------|------------|------------|--------|
|------------|------------|------------|------------|------------|--------|
|
| +W           +W           +W           +W           +W           +W
|------------|------------|------------|------------|------------|--------|
|------------|------------|------------|------------|------------|--------|
|------------|------------|------------|------------|------------|--------|
|-(0)--------|-(0)--------|-(0)--------|-(0)--------|-(0)--------|-(0)----|
|-(0)--------|-(0)--------|-(0)--------|-(0)--------|-(0)--------|-(0)----|
|-(0)--------|-(0)--------|-(0)--------|-(0)--------|-(0)--------|-(0)----|


    S S S S S Q..   S S S S   S Q..   S S Q.
||--------------------------|------------------|
||o-------------------------|------------------|
||--------------------------|------------------|
||--------------------------|------------------|
||o-0-0---0-0-------0-0---0-|-0-------0-0------|
||--0-0---0-0-------0-0---0-|-0-------0-0------|
|
|   S S S S S Q..   S S S S   S Q..   S S Q.
||--------------------------|------------------|
||o-------------------------|------------------|
||--------------------------|------------------|
||--------------------------|------------------|
||o-0-0---0-0-------0-0---0-|-0-------0-0------|
||--0-0---0-0-------0-0---0-|-0-------0-0------|


  S S S S S Q..   S S S S   S S Q  S S S S S S S S S S
|-------------------------|-----------------------------||
|-------------------------|----------------------------o||
|-------------------------|-----------------------------||
|-------------------------|-----------------------------||
|-0-0---0-0-------0-0---0-|-0------0-0-0---0-0---0-0---o||
|-0-0---0-0-------0-0---0-|-0------0-0-0---0-0---0-0----||
|
| S S S S S Q..   S S S S   S S Q  S S S S S S S S S S
|-------------------------|-----------------------------||
|-------------------------|----------------------------o||
|-------------------------|-----------------------------||
|-------------------------|-----------------------------||
|-0-0---0-0-------0-0---0-|-0------0-0-0---0-0---0-0---o||
|-0-0---0-0-------0-0---0-|-0------0-0-0---0-0---0-0----||


  S S S S S S   Q  E S S S S   S S   Q  E S S Q   E
|----------------------------|----------------------|
|----------------------------|----------------------|
|----------------------------|----------------------|
|---------------7--7---------|-------5--5-----6---6-|
|-0-0---0-0-----5--5-0-0---0-|-0-----6--6-0---4---4-|
|-0-0---0-0----------0-0---0-|-0----------0---------|
|
| S S S S S Q..      S S S S   S Q..      S S Q.
|----------------------------|----------------------|
|----------------------------|----------------------|
|----------------------------|----------------------|
|----------------------------|----------------------|
|-0-0---0-0----------0-0---0-|-0----------0-0-------|
|-0-0---0-0----------0-0---0-|-0----------0-0-------|


  S S S S S S   Q  E S S S S   S S Q  S S S S S S S S S S
|----------------------------|-----------------------------|
|----------------------------|-----------------------------|
|----------------------------|-----------------------------|
|---------------7--7---------|-----3-----------------------|
|-0-0---0-0-----5--5-0-0---0-|-0---4--0-0-0---0-0---0-0----|
|-0-0---0-0----------0-0---0-|-0------0-0-0---0-0---0-0----|
|
| S S S S S Q..      S S S S   S S Q  S S S S S S S S S S
|----------------------------|-----------------------------|
|----------------------------|-----------------------------|
|----------------------------|-----------------------------|
|----------------------------|-----------------------------|
|-0-0---0-0----------0-0---0-|-0------0-0-0---0-0---0-0----|
|-0-0---0-0----------0-0---0-|-0------0-0-0---0-0---0-0----|


  S S S S S S   Q  E S S S S   S S   Q  E S S Q   E
|----------------------------|----------------------|
|----------------------------|----------------------|
|----------------------------|----------------------|
|---------------7--7---------|-------5--5-----6---6-|
|-0-0---0-0-----5--5-0-0---0-|-0-----6--6-0---4---4-|
|-0-0---0-0----------0-0---0-|-0----------0---------|
|
| S S S S S Q..      S S S S   S Q..      S S Q.
|----------------------------|----------------------|
|----------------------------|----------------------|
|----------------------------|----------------------|
|----------------------------|----------------------|
|-0-0---0-0----------0-0---0-|-0----------0-0-------|
|-0-0---0-0----------0-0---0-|-0----------0-0-------|


  S S S S S S Q  E S S S S   S S Q  S S S S S S S S S S
|--------------------------|-----------------------------|
|--------------------------|-----------------------------|
|--------------------------|-----------------------------|
|-------------7--7---------|-----3-----------------------|
|-0-0---0-0---5--5-0-0---0-|-0---4--0-0-0---0-0---0-0----|
|-0-0---0-0--------0-0---0-|-0------0-0-0---0-0---0-0----|
|
| S S S S S S Q  E S S S S   S S Q  S S S S S S S S S S
|--------------------------|-----------------------------|
|--------------------------|-----------------------------|
|--------------------------|-----------------------------|
|-------------7--7---------|-----3-----------------------|
|-0-0---0-0---5--5-0-0---0-|-0---4--0-0-0---0-0---0-0----|
|-0-0---0-0--------0-0---0-|-0------0-0-0---0-0---0-0----|


    S S S S S S Q  E S S S S   S S Q  E S S Q  E
||---------------------------|-------------------|
||o--------------------------|-------------------|
||---------------------------|-------------------|
||--------------7--7---------|-----5--5-----6--6-|
||o-0-0---0-0---5--5-0-0---0-|-0---6--6-0---4--4-|
||--0-0---0-0--------0-0---0-|-0--------0--------|
|
|   S S S S S S Q  E S S S S   S S Q  E S S Q  E
||---------------------------|-------------------|
||o--------------------------|-------------------|
||---------------------------|-------------------|
||--------------7--7---------|-----5--5-----6--6-|
||o-0-0---0-0---5--5-0-0---0-|-0---6--6-0---4--4-|
||--0-0---0-0--------0-0---0-|-0--------0--------|


  S S S S S S Q  E S S S S   S S Q  S S S S S S S S S S
|--------------------------|------------------------------||
|--------------------------|-----------------------------o||
|--------------------------|------------------------------||
|-------------7--7---------|-----3------------------------||
|-0-0---0-0---5--5-0-0---0-|-0---4--0-0-0---0-0---0-0----o||
|-0-0---0-0--------0-0---0-|-0------0-0-0---0-0---0-0-----||
|
| S S S S S S Q  E S S S S   S S Q  S S S S S S S S S S
|--------------------------|------------------------------||
|--------------------------|-----------------------------o||
|--------------------------|------------------------------||
|-------------7--7---------|-----3------------------------||
|-0-0---0-0---5--5-0-0---0-|-0---4--0-0-0---0-0---0-0----o||
|-0-0---0-0--------0-0---0-|-0------0-0-0---0-0---0-0-----||


    S S S S S Q..   S S S S   S Q..   S S Q.
||--------------------------|------------------|
||o-------------------------|------------------|
||--------------------------|------------------|
||--------------------------|------------------|
||o-0-0---0-0-------0-0---0-|-0-------0-0------|
||--0-0---0-0-------0-0---0-|-0-------0-0------|
|
|   S S S S S Q..   S S S S   S Q..   S S Q.
||--------------------------|------------------|
||o-------------------------|------------------|
||--------------------------|------------------|
||--------------------------|------------------|
||o-0-0---0-0-------0-0---0-|-0-------0-0------|
||--0-0---0-0-------0-0---0-|-0-------0-0------|


  S S S S S Q..   S S S S   S S Q  S S S S S S S S S S     E H..
|-------------------------|-----------------------------||----------*|
|-------------------------|----------------------------o||----------*|
|-------------------------|-----------------------------||----------*|
|-------------------------|-----------------------------||----------*|
|-0-0---0-0-------0-0---0-|-0------0-0-0---0-0---0-0---o||-0--------*|
|-0-0---0-0-------0-0---0-|-0------0-0-0---0-0---0-0----||-0--------*|
|
| S S S S S Q..   S S S S   S S Q  S S S S S S S S S S     E H..
|-------------------------|-----------------------------||----------*|
|-------------------------|----------------------------o||----------*|
|-------------------------|-----------------------------||----------*|
|-------------------------|-----------------------------||----------*|
|-0-0---0-0-------0-0---0-|-0------0-0-0---0-0---0-0---o||-0--------*|
|-0-0---0-0-------0-0---0-|-0------0-0-0---0-0---0-0----||-0--------*|


Duration Legend
---------------
W - whole; H - half; Q - quarter; E - 8th; S - 16th; T - 32nd; X - 64th; a - acciaccatura
+ - note tied to previous; . - note dotted; .. - note double dotted
Uncapitalized letters represent notes that are staccato (1/2 duration)
Irregular groupings are notated above the duration line
Duration letters will always appear directly above the note/fret number it represents the
duration for.  Duration letters with no fret number below them represent rests.  Multi-
bar rests are notated in the form Wxn, where n is the number of bars to rest for.  Low
melody durations appear below the staff

Tablature Legend
----------------
 h   - hammer-on
 p   - pull-off
 b   - bend
 pb  - pre-bend
 r   - bend release (if no number after the r, then release immediately)
 /\  - slide into or out of (from/to "nowhere")
 s   - legato slide
 S   - shift slide
  - natural harmonic
[n]  - artificial harmonic
n(n) - tapped harmonic
 ~   - vibrato
 tr  - trill
 T   - tap
 TP  - trem. picking
 PM  - palm muting
\n/  - tremolo bar dip; n = amount to dip
 \n  - tremolo bar down
 n/  - tremolo bar up
/n\  - tremolo bar inverted dip
 =   - hold bend; also acts as connecting device for hammers/pulls
 <>  - volume swell (louder/softer)
 x   - on rhythm slash represents muted slash
 o   - on rhythm slash represents single note slash

Misc Legend
-----------
 |  - bar
||  - double bar
||o - repeat start
o|| - repeat end
*|  - double bar (ending)
 :  - bar (freetime)
 $  - Segno
 &  - Coda
Tempo markers -  = BPM(8/16=s8/s16), where s8 = swing 8ths, s16 = swing 16ths


***************************************************************************************
* Generated using Power Tab Editor by Brad Larsen - http://powertab.guitarnetwork.org *
***************************************************************************************

            
            
Suggest correction
Creating personal tab
Creating personal tab
You can edit any tab online and save it as your Personal.

You can edit, replace or remove any tab part or add personal notes – all changes will be seen only by you.

Personal tabs can be accessed anytime from any device, even offline.
Learn more »
Give kudos to tab author, rate the tab!
1 2 3 4 5
comments
print report bad tab
guest
You may want to rate the tab now too:
select rating
Wanna post a correction for this tab? Suggest correction