Oops, an error
Loading. Please wait.

Unstoppable tab

version 1
version 1

Whole song

Interactive

by Unearth
2,921 views 1 this week
6 commentsread comments
1 2 3 4 5
x 4
add to favorites
×
Save as Personal and add changes to this tab that will be seen only by you. Learn more ›
×
You can save this tab as Personal to edit and correct it or add notes. All changes will be seen only by you. Learn more »
launch autoscroll
font size
0
reset
how to read this tab
guitar tuner
edit
Autoscroll
slow
fast
+/-
esc
set tempo
stop
Author
-----------------------------------------------------------------------------
                             UNSTOPPABLE-UNEARTH
-----------------------------------------------------------------------------
Tabbed by:7stringdude
i was surprised this hasnt been tabbed out yet so lets see if i can get this in one 
i didnt leave anything out. send me a pm if you have anything questions. this is my first 
please rate, comment and enjoy

0:00
e|------------------------------------------------------------------|
B|------------------------------------------------------------------|
G|------------------------------------------------------------------|
D|------------------------------------------------------------------|
A|2--------let it ring----------------------------------------------|
E|2-----------------------------------------------------------------|
B|0---------------------------------------------------15\-----------|

0:06 riff A-play 3 times
1a,2a,3a                        4a
  Pm-----------------------|pm---------------------------------|
e|-------------------------|-----------------------------------|
B|-------------------------|-----------------------------------|
G|-------------------------|-----------------------------------|
D|-------------------------|-----------------------------------|
A|-------------------------|-----------------------------------|
E|-------------------------|-----------------------------------|
B|00000-00000-00000-00-0-00|00000-00000-00000-00-0-00-00-0-00--|

0:44 RIFF B play 3 times
RIFF B  pm--------|        1b pm--------------------------|
e|-----------------------|--------------------------------|
B|-----------------------|--------------------------------|
G|-----------------------|--------------------------------|
D|-----------------------|--------------------------------|
A|-9\7/9-----------9-7-10|-9\7/9-------7-5-4-5-4h5p4------|
E|-7\5/7-----------7-5-8-|-7\5/7--------------------------|
B|------000-000-000------|------000-000-------------------|

2b
e|-------------------------|
B|-------------------------|
G|-------------------------|
D|-9-7-7-6---6/7--7\6\4----|
A|-7-5-5-4---4/5--5\4\2----|
E|-------------------------|
B|-------------------------|

1:14
harmonizing-palm mute whenever its open string
pm -- -- -- -- -- -- -- -- -- -- -- --  --  --  --  --|
e|------------------------------------------------------|
B|------------------------------------------------------|
G|------------------------------------------------------|
D|------------------------------------------------------|
A|9009009009009009009009009009009009001000100010001000--|
E|------------------------------------------------------|
B|------------------------------------------------------|
 |
 | -- -- -- -- -- -- -- -- -- -- -- -- -- -- -- --|
e|------------------------------------------------------|
B|------------------------------------------------------|
G|------------------------------------------------------|
D|------------------------------------------------------|
A|------------------------------------------------------|
E|700700700700700700700700600600600600600600600600------|
B|------------------------------------------------------|


pm -- -- -- -- -- -- -- --  --  --  --  --  --  --  --  --|
e|----------------------------------------------------------|
B|----------------------------------------------------------|
G|----------------------------------------------------------|
D|----------------------------------------------------------|
A|90090090090090090090090012001200120012001200120012001200--|
E|----------------------------------------------------------|
B|----------------------------------------------------------|
 |
 | -- -- -- -- -- -- -- --  --  --  --  -- -- -- -- --|
e|----------------------------------------------------------|
B|----------------------------------------------------------|
G|----------------------------------------------------------|
D|----------------------------------------------------------|
A|----------------------------------------------------------|
E|7007007007007007007007001000100010001000900900900900------|
B|----------------------------------------------------------|

pm -- -- -- -- -- -- -- -- -- -- -- -- -- -- -- --|
e|--------------------------------------------------|
B|--------------------------------------------------|
G|--------------------------------------------------|
D|--------------------------------------------------|
A|900900900900900900900900400400400400200200200200--|
E|--------------------------------------------------|
B|--------------------------------------------------|
 |
 | -- -- -- -- -- -- -- -- -- -- -- -- -- -- -- --|
e|--------------------------------------------------|
B|--------------------------------------------------|
G|--------------------------------------------------|
D|--------------------------------------------------|
A|--------------------------------------------------|
E|700700700700600600600600900900900900700700700700--|
B|--------------------------------------------------|

pm -- -- -- --  --  --  --  -|
e|--------------------------------------------------------------------------|
B|--------------------------------------------------------------------------|
G|--------------------------------------------------------------------------|
D|--------------------------------------------------------------------------|
A|900900900900100010001000100012121212--------------------------------------|
E|--------------------------------------------------------------------------|
B|--------------------------------------------------------------------------|
 |
 | -- -- -- -- -- -- -- -|
e|--------------------------------------------------------------------------|
B|--------------------------------------------------------------------------|
G|--------------------------------------------------------------------------|
D|--------------------------------------------------------------------------|
A|--------------------------------------------------------------------------|
E|70070070070090090090090010101010------------------------------------------|
B|--------------------------------------------------------------------------|

1:34 play 2 times
    pm-----------------|   pm-----------|  1.       2-------------------------|
e|--------------------------------------|----------|--------------------------|
B|--------------------------------------|----------|--------------------------|
G|--------------------------------------|----------|--------------------------|
D|--------------------------------------|-9-\7-/10-|--------------------------|
A|2----------------------2--------------|-x--x-/x--|9-\7-/10------------------|
E|2----------------------2--------------|-7-\5-/8--|7-\5-/8-------------------|
B|0-0-000-0-000-0-0-0-0--0-0-000-0-0-0-0|----------|--------------------------|

    pm-----------------|   pm-----------|  1.       2              pm---------|
e|--------------------------------------|----------|--------------------------|
B|--------------------------------------|----------|--------------------------|
G|--------------------------------------|----------|--------------------------|
D|--------------------------------------|-9-\7-/10-|--------------------------|
A|2----------------------2--------------|-x--x--x--|9-\7-/10--2---------------|
E|2----------------------2--------------|-7-\5-/8--|7-\5-/8---2---------------|
B|0-0-000-0-000-0-0-0-0--0-0-000-0-0-0-0|----------|----------0----0-0-0-0----|


2:00-repeat RIFF B 2 times


2:20-
e|--------------------------------------------------------------------------|
B|--------------------------------------------------------------------------|
G|--------------------------------------------------------------------------|
D|--------------------------------------------------------------------------|
A|-/9------------\5-----------/4--------2-----------------------------------|
E|-/7------------\3-----------/6--------2-----------------------------------|
B|--------------------------------------0-----------------------------------|


  harmonize
e|--------------------------------------------------------------------------|
B|--------------------------------------------------------------------------|
G|--------------------------------------------------------------------------|
D|---------------------------------------------------.----------------------|
A|--9-------------5------------4--------2-----------2-----------------------|
E|--7-------------3------------6--------2-----------2-----------------------|
B|--------------------------------------0-----------0----------/12\---------|
 |
e|--------------------------------------------------------------------------|
B|--------------------------------------------------------------------------|
G|--------------------------------------------------------------------------|
D|--9------11--12-11-----12-11-8--------9-----------------------------------|
A|--x------x---x--x------x--x--x--------x-----------------------------------|
E|--7------9---10-9------10-9--6--------7-----------------------------------|
B|--------------------------------------------------------------------------|


2:38-RIFF C play 2 times
 pm-|           pm-|             pm-|        pm---|   pm---|
e|----------------------------------------------------------------------------|
B|----------------------------------------------------------------------------|
G|----------------------------------------------------------------------------|
D|----------------------------------------------------------------------------|
A|--------------------------------------9----------55-------44----------------|
E|----7-10-9-7\5-----7-10-9-10\9------7--10-9\-----33-------66----------------|
B|0-00----------5-55-------------8-88---------0-0-0---0-0-0-------------------|


2:52-RIFF D play 2 times
 pm--|           pm-|             pm-|        pm---|   pm---|
e|----------------------------------------------------------------------------|
B|----------------------------------------------------------------------------|
G|----------------------------------------------------------------------------|
D|----------------------------------------------------------------------------|
A|---------------------------------------9----------55-------44---------------|
E|-----7-10-9-7\5-----7-10-9-10\9------7--10-9\-----33-------66---------------|
B|0-0-0----------5-55-------------8-88---------0-0-0---0-0-0------------------|


3:05                               1,3       2               4
pm-------------------------------| pm--| p.h.
e|--------------------------------|---------|---------------|-----------------|
B|--------------------------------|---------|---------------|-----------------|
G|--------------------------------|---------|---------------|-----------------|
D|--------------------------------|---------|-12-12-9-12-11~|-12--11---9------|
A|--------------------------------|---------|-x--x--x-x--x--|-x----x---x------|
E|--------------------------------|------[3]|-10-10-7-10-9~-|-10---9---7------|
B|0-00-0-0-0-0-00-0-0-0-0-00-0-0-0|-0-0-0---|---------------|-----------------|

3:23 clean                   1.
e|--------------------------|---------------------------------------|
B|--------------------------|---------------------------------------|
G|--------------------------|---------------------------------------|
D|-6-6-6-6-6-6-6-6-77779999-|--7-7-7-7-7-7-7-7-9-9-9-9-10-10-10-10--|
A|7-7-7-7-7-7-7-7--77777777-|-8-8-8-8-8-8-8-8--8-8-8-8-8--8--8--8---|
E|--------------------------|---------------------------------------|
B|--------------------------|---------------------------------------|

 2.
e|------------------------------------------------------------------|
B|------------------------------------------------------------------|
G|------------------------------------------------------------------|
D|-7-7-7-7-7-7-7-7-5-5-5-5-3-3-3-3----------------------------------|
A|8-8-8-8-8-8-8-8-7-7-7-7-5-5-5-5-----------------------------------|
E|------------------------------------------------------------------|
B|------------------------------------------------------------------|
 |
 |
e|------------------------------------------------------------------|
B|------------------------------------------------------------------|
G|------------------------------------------------------------------|
D|0-----------------------------------------------------------------|
A|----------------3-------2-----------------------------------------|
E|------------------------------------------------------------------|
B|------------------------------------------------------------------|


 3:38
e|------------------------------------------------------------------|
B|------------------------------------------------------------------|
G|------------------------------------------------------------------|
D|-6-6-6-6-6-6-6-6-77779999----7-7-7-7-7-7-7-7-9-9-9-9-10-10-10-10--|
A|7-7-7-7-7-7-7-7--77777777---8-8-8-8-8-8-8-8--8-8-8-8-8--8--8--8---|
E|------------------------------------------------------------------|
B|------------------------------------------------------------------|
 |
e|-----------3---------------------------3--------------------------|
B|-------1------1--------------------1------1-----------------------|
G|---4-------------4-------------4-------------4--------------------|
D|2---------------------------3-------------------------------------|
A|------------------------------------------------------------------|
E|------------------------------------------------------------------|
B|------------------------------------------------------------------|
 |
e|------------------------------------------------------------------|
B|------------------------------------------------------------------|
G|------------------------------------------------------------------|
D|2---------------------------3-------------------------------------|
A|--------------------with-feedback---------------------------------|
E|------------------------------------------------------------------|
B|------------------------------------------------------------------|


e|------------------------------------------------------------------|
B|------------------------------------------------------------------|
G|------------------------------------------------------------------|
D|-6-6-6-6-6-6-6-6-77779999----7-7-7-7-7-7-7-7-5-5-5-5-3-3-3-3------|
A|7-7-7-7-7-7-7-7--77777777---8-8-8-8-8-8-8-8-7-7-7-7-5-5-5-5-------|
E|------------------------------------------------------------------|
B|------------------------------------------------------------------|
 |
e|-----------3------------------------------------------------------|
B|-------1------1---------------------------------------------------|
G|---4-------------4------------------------------------------------|
D|2-----------------------------------------------------------------|
A|------------------------------------------------------------------|
E|------------------------------------------------------------------|
B|------------------------------------------------------------------|
 |
e|------------------------------------------------------------------|
B|------------------------------------------------------------------|
G|------------------------------------------------------------------|
D|----------------------------0-------------------------------------|
A|--------------------------------------------3-------2-------------|
E|------------------------------------------------------------------|
B|------------------------------------------------------------------|


e|------------------------------------------------------------------|
B|------------------------------------------------------------------|
G|------------------------------------------------------------------|
D|-6-6-6-6-6-6-6-6-77779999----7-7-7-7-7-7-7-7-9-9-9-9-10-10-10-10--|
A|7-7-7-7-7-7-7-7--77777777---8-8-8-8-8-8-8-8--8-8-8-8-8--8--8--8---|
E|------------------------------------------------------------------|
B|------------------------------------------------------------------|
 |
e|-----------3---------------------------3--------------------------|
B|-------1------1--------------------1------1-----------------------|
G|---4-------------4-------------4-------------4--------------------|
D|2---------------------------3-------------------------------------|
A|------------------------------------------------------------------|
E|------------------------------------------------------------------|
B|------------------------------------------------------------------|
 |
e|------------------------------------------------------------------|
B|------------------------------------------------------------------|
G|------------------------------------------------------------------|
D|2---------------------------3-------------------------------------|
A|--------with feedback---------------------------------------------|
E|------------------------------------------------------------------|
B|------------------------------------------------------------------|

e|------------------------------------------------------------------|
B|------------------------------------------------------------------|
G|------------------------------------------------------------------|
D|-6-6-6-6-6-6-6-6-77779999----7-7-7-7-7-7-7-7-5-5-5-5-3-3-3-3------|
A|7-7-7-7-7-7-7-7--77777777---8-8-8-8-8-8-8-8-7-7-7-7-5-5-5-5-------|
E|------------------------------------------------------------------|
B|------------------------------------------------------------------|
 |
e|-----------3------------------------------------------------------|
B|-------1------1---------------------------------------------------|
G|---4-------------4------------------------------------------------|
D|2-----------------------------------------------------------------|
A|------------------------------------------------------------------|
E|------------------------------------------------------------------|
B|------------------------------------------------------------------|
 |
e|------------------------------------------------------------------|
B|------------------------------------------------------------------|
G|------------------------------------------------------------------|
D|----------------------------0-------------------------------------|
A|--------------------------------------------3-------2-------------|
E|------------------------------------------------------------------|
B|------------------------------------------------------------------|
 |
e|------------------------------------------------------------------|
B|------------------------------------------------------------------|
G|------------------------------------------------------------------|
D|------------------------------------------------------------------|
A|-----------------------------------------------pick scape---------|
E|-----------------------------------------\\\\\\\\\\\\\\\\\\\\\\\\\|
B|-----------------------------------------\\\\\\\\\\\\\\\\\\\\\\\\\|


4:05 play 2 times
e|--------------------------------------------------------------------------|
B|--------------------------------------------------------------------------|
G|--------------------------------------------------------------------------|
D|--------------------------------------------------------------------------|
A|-/9------------\5-----------/4--------2-----------------------------------|
E|-/7------------\3-----------/6--------2-----------------------------------|
B|--------------------------------------0-----------------------------------|


harmonize-play 2 times
e|--------------------------------------------------------------------------|
B|--------------------------------------------------------------------------|
G|--------------------------------------------------------------------------|
D|--------------------------------------------------------------------------|
A|--9-------------5------------4--------2-----------------------------------|
E|--7-------------3------------6--------2-----------------------------------|
B|--------------------------------------0-----------------------------------|
 |
e|--------------------------------------------------------------------------|
B|--------------------------------------------------------------------------|
G|--------------------------------------------------------------------------|
D|--9------11--12-11-----12-11-8--------9-----------------------------------|
A|--x------x---x--x------x--x--x--------x-----------------------------------|
E|--7------9---10-9------10-9--6--------7-----------------------------------|
B|--------------------------------------------------------------------------|


4:33 play 2 times
pm   -- --         -- --        -- --
e|--------------------------------------------------------------------------|
B|------------------------------------------------3------------3------------|
G|----------------------------------------------6---6--------6---6----------|
D|--------------------------------------------4-------4----4-------4--------|
A|--9--9--9-99----5--5--5-55---4--4--4-44---5------------5------------------|
E|--7--7--7-77----3--3--3-33---6--6--6-66-----------------------------------|
B|---00-00---------00-00--------00-00---------------------------------------|


4:47-RIFF C 2 times

| /  slide up
| \  slide down
| h  hammer-on
| p  pull-off
| ~  vibrato
| +  harmonic
| x  Mute note
=============================================================================

            
            
Suggest correction
Creating personal tab
Creating personal tab
You can edit any tab online and save it as your Personal.

You can edit, replace or remove any tab part or add personal notes – all changes will be seen only by you.

Personal tabs can be accessed anytime from any device, even offline.
Learn more »
comments
print report bad tab
6 comments total. Showing first comments.
0 reply
Nor'Easterbass 302 Feb 16, 2007 06:38 AM

where's the solo? i believe this is the only song on the damn CD that has any real soloing in it. You working on it or...?

0 reply
Nor'Easterbass 302 Feb 16, 2007 06:38 AM

PS. looks good otherwise

0 reply
7stringdude 70 Feb 17, 2007 09:08 AM

correction on riff C and D. apologize for that
pm-| pm-| pm-| pm---| pm---|
e|-------------------------------------------------------------------|
B|-------------------------------------------------------------------|
G|-------------------------------------------------------------------|
D|-------------------------------------------------------------------|
A|--------------------------------------9----------55-------44-------|
E|----7-10-9-7/5-----7-10-9-10\9------7--10-9\-----33-------66-------|
B|0-00----------5-55-------------8-88---------0-0-0---0-0-0----------|

guest
You may want to rate the tab now too:
select rating
Wanna post a correction for this tab? Suggest correction