Oops, an error
Loading. Please wait.

Dragnalus tab

version 2
version 2

Whole song

by Unwound
1,408 views 3 this week
no commentswrite comment
1 2 3 4 5
1 last vote to show rating
add to favorites
×
Save as Personal and add changes to this tab that will be seen only by you. Learn more ›
×
You can save this tab as Personal to edit and correct it or add notes. All changes will be seen only by you. Learn more »
launch autoscroll
font size
0
reset
how to read this tab
guitar tuner
edit
Autoscroll
slow
fast
+/-
esc
set tempo
stop
Author
Difficulty
Artist: Unwound
Song: "Dragnalus"
Album: Fake Train (1993)



Standard tuning



Intro/Outro:
 * incorporate open strings after bass/drums come in
e|------------(0)---------------------(0)---------|
B|------------------------------------------------|
G|-------------2----------(0)----------2----------|
D|(0)---------(0)---------(0)---------(0)---------|
A|------------------------------------------------|
E|-3-----------------------3----------------------|
+
e|------------(0)---------------------(0)---------|
B|------------------------------------------------|
G|-------------2----------(0)----------2----------|
D|(0)---------(0)---------(0)---------(0)---------|
A|------------------------------------------------|
E|-3-----------------------3----------------------|



Verse:
e|------------------------------------------------|
B|------------------------------------------------|
G|-------------6-----------------------6----------|
D|------------------------------------------------|
A|------------------------------------------------|
E|-5-----------------------5----------------------|
+
e|------------------------------------------------|
B|------------------------------------------------|
G|-------------6-----------------------6----------|
D|------------------------------------------------|
A|------------------------------------------------|
E|-5-----------------------5----------------------|
+
e|------------------------------------------------|
B|------------------------------------------------|
G|-------------2-----------------------2----------|
D|------------(0)---------------------(0)---------|
A|------------------------------------------------|
E|-1-----------------------3----------------------|



Chorus:
e|------------------------------------------------|
B|------------------------------------------------|
G|-#-----------9~----------#-----------9~---------|
D|-#-----------10~---------#-----------10~--------|
A|-#-----------0-----------#-----------0----------|
E|-#-----------------------#----------------------|
+
e|------------------------------------------------|
B|------------------------------------------------|
G|-#-----------9~----------#-----------9~---------|
D|-#-----------10~---------#-----------10~--------|
A|-#-----------0-----------#-----------0----(0)---|
E|-#-----------------------#----------------------|
+
e|------------------------------------------------|
B|------------------------------------------------|
G|(0)---------------------------------(0)---(5)---|
D|(0)---------------------------------(0)----5~---|
A|-0-----------3~---p0-----5-----3~----0-----3~---|
E|------------------------------------------------|



Noisy Verse:
 * mute strings and play intermittent natural and artificial harmonics
e|------------------------------------------------|
B|-%_______________________------------6b---------|
G|-%_______________________-----------------------|
D|-%_______________________-----------------------|
A|-%_______________________0----------------------|
E|------------------------------------------------|
+
e|------------------------------------------------|
B|-------------6b----------------------6b---------|
G|------------------------------------------------|
D|------------------------<5><5><5><5>------------|
A|-0--0--0--0-------------<5><5><5><5>------------|
E|------------------------------------------------|
+
 * pick harmonics rapidly/double time
e|------------------------------------------------|
B|------------------------------------------------|
G|<15*15*15*15*15*15*15*15*15*15*15*15*15*15*15*15|
D|<15*15*15*15*15*15*15*15*15*15*15*15*15*15*15*15|
A|------------------------------------------------|
E|------------------------------------------------|
+
* pick harmonics rapidly/double time
e|------------------------------------------------|
B|------------------------------------------------|
G|<15\14\13\12\11\*9/11/13/16/17/19\17\16\15*15*>-|
D|<15\14\13\12\11\*9/11/13/16/17/19\17\16\15*15*>-|
A|------------------------------------------------|
E|------------------------------------------------|
+
e|------------------------------------------------|
B|-------------6b----------------------6b---------|
G|------------------------------------------------|
D|<4>---------------------<5><5><5><5>------------|
A|---<5><5>-0-------------<5><5><5><5>------------|
E|------------------------------------------------|
+
e|------------------------------------------------|
B|-------------6b----------------------6b---------|
G|------------------------------------------------|
D|<5><5><5><5>------------<5><5><5><5>------------|
A|<5><5><5><5>------------<5><5><5><5>------------|
E|------------------------------------------------|
+
 * pick harmonics rapidly/double time
e|------------------------------------------------|
B|------------------------------------------------|
G|<15*15*15*15*15*15*15*15*15*15*15*15*15*15*15*15|
D|<15*15*15*15*15*15*15*15*15*15*15*15*15*15*15*15|
A|------------------------------------------------|
E|------------------------------------------------|
+
* pick harmonics rapidly/double time
e|------------------------------------------------|
B|------------------------------------------------|
G|-------13\12\11\*9/11/13/16/17/19\17\16\0--0--0-|
D|-15/--<13\12\11\*9/11/13/16/17/19\17\16\0--0--0-|
A|------------------------------------------------|
E|------------------------------------------------|
+
e|------------------------------------------------|
B|-------------6b----------------------6b---------|
G|------------------------------------------------|
D|<5><5><5><5>------------<5><5><5><5>------------|
A|<5><5><5><5>------------<5><5><5><5>------------|
E|------------------------------------------------|
+
e|------------------------------------------------|
B|-------------6b----------------------6b---------|
G|------------------------------------------------|
D|<5><5><5><5>------------<5><5><5><5>------------|
A|<5><5><5><5>------------<5><5><5><5>------------|
E|------------------------------------------------|
+
 * pick harmonics rapidly/double time
e|------------------------------------------------|
B|-------------------------------------0~---------|
G|<15*15*15*15>0~---------<15*15*15*15>0~---------|
D|<15*15*15*15>0~---------<15*15*15*15>0~---------|
A|------------------------------------------------|
E|------------------------------------------------|
+
e|------------------------------------------------|
B|-0~----------0~----------0~---------------------|
G|-0~----------0~----------0~---------------------|
D|-0~----------0~----------0~---------------------|
A|------------------------------------------------|
E|------------------------------------------------|
+
 * pick harmonics rapidly/double time
e|------------------------------------------------|
B|-------------6b----------------------6b---------|
G|------------------------------------------------|
D|<5><5><5><5>------------<5><5><5><5>------------|
A|<5><5><5><5>------------<5><5><5><5>------------|
E|------------------------------------------------|
+
 * pick harmonics rapidly/double time
e|------------------------------------------------|
B|-------------6b----------------------6b---------|
G|------------------------------------------------|
D|<5><5><5><5>------------<5><5><5><5>------------|
A|<5><5><5><5>------------<5><5><5><5>------------|
E|------------------------------------------------|
+
e|------------------------------------------------|
B|-------------0~----x-----0~----x-----0~----x----|
G|<15*15*15*15>0~----x-----0~----x-<15>0~----x----|
D|<15*15*15*15>0~----x-----0~----x-<15>0~----x----|
A|------------------------------------------------|
E|------------------------------------------------|
+
e|------------------------------------------------|
B|-0~----------0~----------0~----------0~---------|
G|-0~----------0~----------0~----------0~---------|
D|-0~----------0~----------0~----------0~---------|
A|------------------------------------------------|
E|------------------------------------------------|



Song Structure:
Intro x 5
Verse x 4
Chorus x 4
Verse x 4
Chorus x 4
Noisy Verse
Outro x 4¾



That's it.  Feel free to rate, leave comments, questions, requests, etc.  Cheers!
-Bennyshambles78-





            
            
Suggest correction
Creating personal tab
Creating personal tab
You can edit any tab online and save it as your Personal.

You can edit, replace or remove any tab part or add personal notes – all changes will be seen only by you.

Personal tabs can be accessed anytime from any device, even offline.
Learn more »
Give kudos to tab author, rate the tab!
1 2 3 4 5
comments
print report bad tab
guest
You may want to rate the tab now too:
select rating
Wanna post a correction for this tab? Suggest correction