Oops, an error
Loading. Please wait.

Lifetime Achievement Award tab

by Unwound
672 views 1 this week
1 commentread comment
1 2 3 4 5
1 last vote to show rating
add to favorites
×
Save as Personal and add changes to this tab that will be seen only by you. Learn more ›
×
You can save this tab as Personal to edit and correct it or add notes. All changes will be seen only by you. Learn more »
launch autoscroll
font size
0
reset
how to read this tab
guitar tuner
edit
Autoscroll
slow
fast
+/-
esc
set tempo
stop
Author
Difficulty
ARTIST: Unwound
SONG: "Lifetime Achievement Award"                                              
ALBUM: Challenge for a Civilized Society (1998)



TUNING: Alternate (low-to-high, F#-A-E-G-A-D)



VERSE I:
D |------------------------------------------------|
A |------------------------------------------------|
G |-------9-----8--------0--------9-----8----------|
E |----9-----9-----9-------------(9)-9-----9-----9-|
A |-0-----------------0-----------------------7----|
F#|-------------------------7--7-------------------|
+
D |------------------------------------------------|
A |----------------0-------------------------------|
G |-------9-----8-----------------------11-9-----9-|
E |---------(9)----------9--------9-----------9----|
A |/9--9-----9--------9----/11-11----11------------|
F#|------------------------------------------------|
+
D |------------------------------------------------|
A |------------------------------------------------|
G |-------11----9-----------------11----9----------|
E |----9-----9-----9-----9-----9-----9-----9-----9-|
A |-0-----------------0-----11----------------11---|
F#|------------------------------------------------|
+
D |------------------------------------------------|
A |------------------------------------------------|
G |-------8-----8h98-----8--9--9--9--9--9--9--9--9-|
E |-------------------------9--9--9--9--9--9--9--9-|
A |-9--9-----9--------9-----7--7--7--7--7--7--7--7-|
F#|-------------------------7--7--7--7--7--7--7--7-|

                                                                          
PRE-CHORUS:
D |------------------------------------------------||
A |------------------------------------------------||
G |-------7-----7h87-----7--------6-----6h76-----6-|| x 4
E |----8-----8--------8--------7-----7--------7----||
A |------------------------------------------------||
F#|-6-----------------------5----------------------||
+
D |------------------------------------------------|
A |------------------------------------------------|
G |-------6-----6h76-----6--------6-----6h76-----6-|
E |----7-----7--------7--------7-----7--------7----|
A |------------------------------------------------|
F#|-5-----------------------5----------------------|


CHORUS I:
D |------------------------------------------------||
A |------------------------------------------------||
G |------------------------------------------------|| x 8
E |------------------------------------------------||
A |-------5-----5--------5--------5-----7--5-----5-||
F#|-7--7-----7-----7--7-----6--6-----6--------6----||
+
D |------------------------------------------------|
A |------------------------------------------------|
G |------------------------------------------------|
E |------------------------------------------------|
A |-------5-----7--5-----5--------5-----7--5-----5-|
F#|-6--6-----6--------6-----6--6-----6--------6----|


VERSE II:
D |------------------------------------------------|
A |------------------------------------------------|
G |-------------2-----------------------2----------|
E |-------4--------4-----4--------4--------4-----4-|
A |----4-----4--------4--------4-----4--------4----|
F#|-0-----------------------0----------------------|
+
D |----------------------0-------------------------|
A |-------------2--------2--------------0----------|
G |-------1--------1-----1--------1--------1-----1-|
E |------------------------------------------------|
A |-2--2-----2--------2-----2--2-----2--------2----|
F#|------------------------------------------------|


CHORUS II and OUTRO:
D |------------------------------------------------||
A |------------------------------------------------||
G |------------------------------------------------|| x 4
E |------------------------------------------------||
A |-------2-----2--------2--------2-----4--2-----2-||
F#|-4--4-----4-----4--4-----3--3-----3--------3----||
+
D |------------------------------------------------||
A |------------------------------------------------||
G |------------------------------------------------|| x 4
E |-------5-----5--------5--------5----------------||
A |-------5-----5--------5--------5-----7--5-----5-||
F#|-7--7-----7-----7--7-----6--6-----6--------6----||
+
D |------------------------------------------------||
A |------------------------------------------------||
G |------------------------------------------------|| x 2
E |-------2-----2--------2--------2----------------||
A |-------2-----2--------2--------2-----4--2-----2-||
F#|-4--4-----4-----4--4-----3--3-----3--------3----||
+
D |------------------------------------------------|
A |------------------------------------------------|
G |------------------------------------------------|
E |------------------------------------------------|
A |-------5-----7--5-----5--------5-----7--5-----5-|
F#|-6--6-----6--------6-----6--6-----6--------6----|
+
D |------------------------------------------------|
A |-----------------------------0------------------|
G |----------------------------2-------------------|
E |---------------------------4--------------------|
A |-------5-----7--5-----5---4---------------------|
F#|-6--6-----6--------6-----0----------------------|



SONG STRUCTURE:
VERSE I x 2
PRE-CHORUS x 1
CHORUS I x 1
VERSE I x 2
PRE-CHORUS x 1
CHORUS x 1
VERSE II x 4
CHORUS II and OUTRO x 1



That's it.  Please leave any comments, questions, or requests.  Cheers!
-Bennyshambles78-



            
            
Suggest correction
Creating personal tab
Creating personal tab
You can edit any tab online and save it as your Personal.

You can edit, replace or remove any tab part or add personal notes – all changes will be seen only by you.

Personal tabs can be accessed anytime from any device, even offline.
Learn more »
Give kudos to tab author, rate the tab!
1 2 3 4 5
comments
print report bad tab
1 comment total.
0 reply
bennyshambles78 4,121 Jan 28, 2014 11:44 AM

Correction on second part of Verse figure:
Verse cont.
A C# F# G#/A
D|----------------------------------------------------------------------|
A|----------------------------------------------------------------------|
G|-------11----9----------------11----9--------------8--H9-8---8-6------|
D|----11----11---11----11----11----11---11----11---7---7-----7---6-x8---|
A|-0----------------0-----11---------------11----9---------------7------|
D|---------------------------------------------------------------7------|

Correction of Chorus riff:
Chorus
D|---------------------------------||-----------------|-----|
A|---------------------------------||-----------------|-----|
G|---------------------------------||-----------------|-----|
D|---------------------------------||-----------------|-x3--|
A|-4-4-5-4-5-4-4-5-3-3-5-3-7-5-3-5-||-3-3-5-3-7-5-3-5-|-----|
D|---------------------------------||-----------------|-----|
(palm mute most of riff) play 3x, on fourth time repeats the 2nd part x3

Additional Verse (backwards tape sounds) figure:
Verse
A C# F# G#
D|---------------------------------------------0---------------0--------|
A|---------0---0-----------0---0-----------2---2-----------2---2--------|
G|-------------------------------------1-----1---------1-----1----------|
D|-----6-----6---------6-----6------------------------------------------|
A|---------------------------------2---------------2--------------------|
D|-4---------------4----------------------------------------------------|

Additional Chorus Riff:
D|---------------------------------||-----------------|-----|
A|---------------------------------||-----------------|-----|
G|---------------------------------||-----------------|-----|
D|---------------------------------||-----------------|-x3--|
A|-2-2-3-2-3-2-2-3-1-1-3-1-5-3-1-3-||-1-1-3-1-5-3-1-3-|-----|
D|---------------------------------||-----------------|-----|

guest
You may want to rate the tab now too:
select rating
Wanna post a correction for this tab? Suggest correction