Oops, an error
Loading. Please wait.

She Says bass

version 2
version 2

Whole song

Interactive

433 views 3 this week
no commentswrite comment
1 2 3 4 5
3 more votes to show rating
add to favorites
×
Save as Personal and add changes to this tab that will be seen only by you. Learn more ›
×
You can save this tab as Personal to edit and correct it or add notes. All changes will be seen only by you. Learn more »
launch autoscroll
font size
0
reset
guitar tuner
edit
Autoscroll
slow
fast
+/-
esc
set tempo
stop
Author
+++++++++++++++++++++++++++
| Unwritten Law- She Says |
+++++++++++++++++++++++++++


"She leaves like she's never coming back again..."

Tuning: Half a Step Down (EbADG)


Verse
"Im doing the best I can..."
1.
G||------------------------|
D||------------------------|
A||------------------------|
Eb|----------------3~--2~--|

Pre-Chorus
"She says "where ya going, where ya been...""
2.
G||-----------------------------|
D||-----------------------------|
A||---------2~------------------|
Eb|-0-0x----------5~----3~--2~--|

"She leaves like she's never coming back again..."
3.
G||---------------------------------------444444-44444-|
D||----------------------------------------------------|
A||---------2~--------------------2-2-2-2--------------|
Eb|-0-0x----------5~--5~--5~--5~-----------------------|

Chorus
"She says "I dont love you like I loved you before...""
4.
G||-----------------------------------------------------------------|
D||-----------------------------------------------------------------|
A||---------5-5-5-5-2-2-2-2-----------------5-5-5-5-2-2-2-2-2-2-2-2-|
Eb|-3-3-3-3-----------------1-1-2-2-3-3-3-3-------------------------|

Outro
5.
G||--------------------------------------------------------|
D||--------------------------------------------------------|
A||-------2~----------2~--2------------2~----------2~--2---|
Eb|-0~----------5~----------3----0~----------5~----------3-|

Verse
"And mother I've tried..."
6.
G||--------------------------------------------------------|
D||--------------------------------------------------------|
A||-------2~----------2~--2------------2~------------------|
Eb|-0~----------5~----------3----0~----------5~----3~--2~--|

Pre-Chorus
"Flip through the script and tell me what it says..."
7.
G||-----------------------------|
D||-----------------------------|
A||---------2~------------------|
Eb|-0-0x----------5~----3~--2~--|

"She says that we're probably better off as friends..."
8.
G||---------------------------------------444444-44444-|
D||----------------------------------------------------|
A||---------2~--------------------2-2-2-2--------------|
Eb|-0-0x----------5~--5~--5~--5~-----------------------|

Chorus
"She says "I dont love you like I loved you before...""
10.
G||-------------------------------------------------4-44444444-444-----|
D||--------------------------------------------------------------------|
A||---------5-5-5-5-2-2-2-2-----------------5-5-5-5--------------------|
Eb|-3-3-3-3-----------------1-1-2-2-3-3-3-3------------------------1-2-|

"She says "I dont love you I dont love you anymore...""
11.
G||--------------------------------------------------------------------|
D||--------------------------------------------------------------------|
A||---------5-5-5-5-2-2-2-2-----------------5-5-5-5-2-22222222-2222222-|
Eb|-3-3-3-3-----------------1-1-2-2-3-3-3-3----------------------------|

"I dont love you..."
12.
G||--------------------------------------|
D||--------------------------------------|
A||-2-22222222-22222222-22222222-2222222-|
Eb|--------------------------------------|

Bridge
"She says, she says, she says (I dont love you anymore)..."
13.
G||-------------------------------------------------------------------------|
D||-------------------------------------------------------------------------|
A||----------22222222----------22222222----------22222222----------22222222-|--x2
Eb|-00000000----------55555555----------00000000----------55555555----------|

Verse
"You, you called the police..."
14.
G||----------------------------------------------------------------|
D||----------------------------------------------------------------|
A||----------------------------------------------------------------|
Eb|----------------------------------------------------------------|

Pre-Chorus
"On and on and on and on yeahh!..."
15.
G||-------------------------------------------444444-444444-|
D||---------------------------------------------------------|
A||-----------------------------222222-222222---------------|
Eb|-555555-555555-555555-555555-----------------------------|

Chorus
"She says "I dont love you like I loved you before...""
16.
G||-------------------------------------------------4-44444444-444-----|
D||--------------------------------------------------------------------|
A||---------5-5-5-5-2-2-2-2-----------------5-5-5-5--------------------|
Eb|-3-3-3-3-----------------1-1-2-2-3-3-3-3------------------------1-2-|

"She says "I dont love you I dont love you anymore...""
17.
G||--------------------------------------------------------------------|
D||--------------------------------------------------------------------|
A||---------5-5-5-5-2-2-2-2-----------------5-5-5-5-2-22222222-2222222-|
Eb|-3-3-3-3-----------------1-1-2-2-3-3-3-3----------------------------|

"I cant love you anymore..."
18.
G||---------------------|
D||---------------------|
A||-2-22222222-22222222-|
Eb|---------------------|

Outro
19.
G||-------------------------------|
D||-------------------------------|
A||-------------------------------|
Eb|-0~----------------------------|


Lyrics:


Father I've sinned
Over and over and over and over again
Sorry my friends
I'm such a mess
I'm doing the best I can
She says "Where ya going? Where ya been?"
She says "I don't want you hanging out with them"
She leaves like she's never coming back again on and on...
It goes on and on, yeah!

She says "I don't love you like I loved you before"
She says, she says "I don't love you anymore"

And mother I've tried over and over and over to open my eyes
Look at my life
Tell me when did I die
'Cause I'm not alive
Flip through the script and tell me what it says
Skip through the story tell me how it ends
She says that we're probably better off as friends
On and on and... yeah!

She says "I don't love you. I don't love you anymore."
She says, she says "I don't love you. I don't love you. I don't love you anymore."

She says she says she says she says "Where ya going"
I know I know I know I know what I want

You... you called the police
You called them on me
And I want to go anywhere but home
I... I'm done listening to what's wrong with me
'Cause it goes on and on and on and on, yeah!



+++++++++++++++++++++++++++++++++
| RaiLeff                       |
| Underground__Dora@Hotmail.Com |
+++++++++++++++++++++++++++++++++

            
            
Suggest correction
Creating personal tab
Creating personal tab
You can edit any tab online and save it as your Personal.

You can edit, replace or remove any tab part or add personal notes – all changes will be seen only by you.

Personal tabs can be accessed anytime from any device, even offline.
Learn more »
Give kudos to tab author, rate the tab!
1 2 3 4 5
comments
print report bad tab
guest
You may want to rate the tab now too:
select rating
Wanna post a correction for this tab? Suggest correction