Oops, an error
Loading. Please wait.

A Toda Madre O Un Desmadre tab

2,827 views 15 this week
no commentswrite comment
1 2 3 4 5
x 6
add to favorites
×
Save as Personal and add changes to this tab that will be seen only by you. Learn more ›
×
You can save this tab as Personal to edit and correct it or add notes. All changes will be seen only by you. Learn more »
launch autoscroll
font size
0
reset
how to read this tab
guitar tuner
edit
Autoscroll
slow
fast
+/-
esc
set tempo
stop
[Intro Part 1]
(Guitar 1 and 2)
e|------------|------------|------------|--------0---|
B|1-------1---|1-------1---|1-------1---|3-----------|
G|----2-------|----2-------|----2-------|----2-------|
D|------2-----|------2-----|------2-----|------2-----|
A|0-----------|0-----------|0-----------|0-----------|
E|------------|------------|------------|------------|

e|------------|------------|------------|------------|
B|5-------5---|5-------5---|5-------5---|6---5---3---|
G|----4-------|----5-------|----5-------|------------|
D|------5-----|------4-----|------4-----|------------|
A|3-----------|3-----------|3-----------|3---3---3---|
E|------------|------------|------------|------------|

e|------------|------------|------------|------------|
B|0-------0---|0-------0---|0-------0---|4-------4---|
G|----2-------|----2-------|----2-------|----2-------|
D|------1-----|------1-----|------1-----|------1-----|
A|2-----------|2-----------|2-----------|2-----------|
E|------------|------------|------------|------------|

e|------------|------------|--------------|------------|
B|0-------0---|0-------0---|5h6p5-3-------|------------|
G|----1-------|----1-------|--------5-4-1-|--------1---|
D|------2-----|------2-----|--------------|3---2-------|
A|2-----------|2-----------|--------------|------------|
E|------------|------------|--------------|------------|

[Intro Part 2]
(Guitar 1)
e|5-5-5-5-5-5-|5-5-5-5-5-5-|5-5-5-5-5-5-|5-5-5-5-5-5-|
B|5-5-5-5-5-5-|5-5-5-5-5-5-|5-5-5-5-5-5-|5-5-5-5-5-5-|
G|5-5-5-5-5-5-|5-5-5-5-5-5-|5-5-5-5-5-5-|5-5-5-5-5-5-|
D|------------|------------|------------|------------|
A|------------|------------|------------|------------|
E|------------|------------|------------|------------|

e|8-8-8-8-8-8-|8-8-8-8-8-8-|8-8-8-8-8-8-|8-8-8-8-8-8-|
B|5-5-5-5-5-5-|5-5-5-5-5-5-|5-5-5-5-5-5-|5-5-5-5-5-5-|
G|5-5-5-5-5-5-|5-5-5-5-5-5-|5-5-5-5-5-5-|5-5-5-5-5-5-|
D|------------|------------|------------|------------|
A|------------|------------|------------|------------|
E|------------|------------|------------|------------|

e|7-7-7-7-7-7-|7-7-7-7-7-7-|7-7-7-7-7-7-|7-7-7-7-7-7-|
B|5-5-5-5-5-5-|5-5-5-5-5-5-|5-5-5-5-5-5-|5-5-5-5-5-5-|
G|7-7-7-7-7-7-|7-7-7-7-7-7-|7-7-7-7-7-7-|7-7-7-7-7-7-|
D|------------|------------|------------|------------|
A|------------|------------|------------|------------|
E|------------|------------|------------|------------|

e|7-7-7-7-7-7-|7-7-7-7-7-7-|------------|------------|
B|5-5-5-5-5-5-|5-5-5-5-5-5-|------------|------------|
G|5-5-5-5-5-5-|5-5-5-5-5-5-|------------|------------|
D|------------|------------|------------|------------|
A|------------|------------|------------|------------|
E|------------|------------|------------|------------|

(Guitar 2)
e|------------|------------|------------|--------0---|
B|1-------1---|1-------1---|1-------1---|3-----------|
G|----2-------|----2-------|----2-------|----2-------|
D|------2-----|------2-----|------2-----|------2-----|
A|0-----------|0-----------|0-----------|0-----------|
E|------------|------------|------------|------------|

e|------------|------------|------------|------------|
B|5-------5---|5-------5---|5-------5---|6---5---3---|
G|----4-------|----5-------|----5-------|------------|
D|------5-----|------4-----|------4-----|------------|
A|3-----------|3-----------|3-----------|3---3---3---|
E|------------|------------|------------|------------|

e|------------|------------|------------|------------|
B|0-------0---|0-------0---|0-------0---|4-------4---|
G|----2-------|----2-------|----2-------|----2-------|
D|------1-----|------1-----|------1-----|------1-----|
A|2-----------|2-----------|2-----------|2-----------|
E|------------|------------|------------|------------|

e|------------|------------|--------------|------------|
B|0-------0---|0-------0---|5h6p5-3-------|------------|
G|----1-------|----1-------|--------5-4-1-|--------1---|
D|------2-----|------2-----|--------------|3---2-------|
A|2-----------|2-----------|--------------|------------|
E|------------|------------|--------------|------------|

[Verse]
(Guitar 1)
e|------------|------------|------------|------------|
B|------------|------------|------------|------------|
G|------------|------------|------------|------------|
D|------------|------------|------------|------------|
A|----------7-|----------7-|----------7-|----------7-|
E|5---5-7-8---|5---5-7-8---|5---5-7-8---|5---5-7-8---|

e|------------|------------|------------|------------|
B|------------|------------|------------|------------|
G|------------|------------|------------|------------|
D|------------|------------|------------|2-3-2-------|
A|----------3-|----------3-|----------3-|------3-2-0-|
E|4---4-5-7---|4---4-5-7---|4---4-5-7---|------------|


e|------------|------------|------------|------------|
B|------------|------------|5-6-5-3-----|------------|
G|------------|------------|--------5-4-|2-4-5-2-----|
D|------------|------------|------------|--------3-2-|
A|----------7-|----------7-|------------|------------|
E|5---5-7-8---|5---5-7-8---|------------|------------|

e|------------|------------|7-8-5-------|------------|
B|------------|------------|------6-5-3-|----------3-|
G|------------|------------|------------|5-4-2-4-5---|
D|------------|------------|------------|------------|
A|----------3-|----------3-|------------|------------|
E|4---4-5-7---|4---4-5-7---|------------|------------|

e|----------------|------------|5-5-5-5-5-5-|5-5-5-5-5-5-|5-5-5-5-5-5-|5-5-5-5-5-5-|
B|5h6p5---3-------|------------|5-5-5-5-5-5-|5-5-5-5-5-5-|5-5-5-5-5-5-|5-5-5-5-5-5-|
G|----------5-4-1-|--------1---|5-5-5-5-5-5-|5-5-5-5-5-5-|5-5-5-5-5-5-|5-5-5-5-5-5-|
D|----------------|3---2-------|------------|------------|------------|------------|
A|----------------|------------|------------|------------|------------|------------|
E|----------------|------------|------------|------------|------------|------------|

(Guitar 2)
e|5-----------|5-----------|5-----------|5-----------|4-----------|4-----------|4-----------|4-----------|
B|5–----------|5-----------|5-----------|5-----------|4-----------|4-----------|4-----------|4-----------|
G|5-----------|5-----------|5-----------|5-----------|5-----------|5-----------|5-----------|5-----------|
D|7-----------|7-----------|7-----------|7-----------|6-----------|6-----------|6-----------|6-----------|
A|7-----------|7-----------|7-----------|7-----------|6-----------|6-----------|6-----------|6-----------|
E|5-----------|5-----------|5-----------|5-----------|4-----------|4-----------|4-----------|4-----------|

e|5-----------|5-----------|5-----------|5-----------|4-----------|4-----------|4-----------|------------|
B|5-----------|5-----------|5-----------|5-----------|4-----------|4-----------|4-----------|------------|
G|5-----------|5-----------|5-----------|5-----------|5-----------|5-----------|5-----------|------------|
D|7-----------|7-----------|7-----------|7-----------|6-----------|6-----------|6-----------|------------|
A|7-----------|7-----------|7-----------|7-----------|6-----------|6-----------|6-----------|------------|
E|5-----------|5-----------|5-----------|5-----------|4-----------|4-----------|4-----------|------------|

e|------------|------------|5-----------|
B|------------|------------|5-----------|
G|------------|------------|5-----------|
D|------------|------------|7-----------|
A|------------|------------|7-----------|
E|------------|------------|5-----------|

(Guitar 1)
e|----------5-5-5-----------|
B|----------5-5-5-----------|
G|----------5-5-5-----------|
D|----------7-7-7-----------|
A|----------7-7-7-----------|
E|5---5-7-8-5-5-5-----------|

(Guitar 2)
e|5---------5-5-5-----------|
B|5---------5-5-5-----------|
G|5---------5-5-5-----------|
D|7---------7-7-7-----------|
A|7---------7-7-7-----------|
E|5---------5-5-5-----------|

[Outro]
(Guitar 1)
e|----------------------------5-5-5-|
B|----------------------------5-5-5-|
G|----------------------------5-5-5-|
D|----------------------------7-7-7-|
A|----------------------------7-7-7-|
E|--------5-------5-------5---5-5-5-|

(Guitar 2)
e|----------------------------5-5-5-|
B|----------------------------5-5-5-|
G|----------------------------5-5-5-|
D|----------------------------7-7-7-|
A|----------------------------7-7-7-|
E|----------------------------5-5-5-|

(Guitar 1 and 2)
e|5-5-5---5-5---5---5---5-5---5-5-|5-5-5---5-5---5---5---5-5---5-5-|
B|5-5-5---5-5---5---5---5-5---5-5-|5-5-5---5-5---5---5---5-5---5-5-|
G|5-5-5---5-5---5---5---5-5---5-5-|5-5-5---5-5---5---5---5-5---5-5-|
D|7-7-7---7-7---7---7---7-7---7-7-|7-7-7---7-7---7---7---7-7---7-7-|
A|7-7-7---7-7---7---7---7-7---7-7-|7-7-7---7-7---7---7---7-7---7-7-|
E|5-5-5---5-5---5---5---5-5---5-5-|5-5-5---5-5---5---5---5-5---5-5-|

e|3-3-3---3-3---3---3---3-3---3-3-|3-3-3---3-3---3---3---3-3---3-3-|
B|3-3-3---3-3---3---3---3-3---3-3-|3-3-3---3-3---3---3---3-3---3-3-|
G|4-4-4---4-4---4---4---4-4---4-4-|4-4-4---4-4---4---4---4-4---4-4-|
D|5-5-5---5-5---5---5---5-5---5-5-|5-5-5---5-5---5---5---5-5---5-5-|
A|5-5-5---5-5---5---5---5-5---5-5-|5-5-5---5-5---5---5---5-5---5-5-|
E|3-3-3---3-3---3---3---3-3---3-3-|3-3-3---3-3---3---3---3-3---3-3-|

e|2-2-2---2-2---2---2---2-2---2-2-|2-2-2---2-2---2---2---2-2---2-2-|
B|0-0-0---0-0---0---0---0-0---0-0-|0-0-0---0-0---0---0---0-0---0-0-|
G|2-2-2---2-2---2---2---2-2---2-2-|2-2-2---2-2---2---2---2-2---2-2-|
D|1-1-1---1-1---1---1---1-1---1-1-|1-1-1---1-1---1---1---1-1---1-1-|
A|2-2-2---2-2---2---2---2-2---2-2-|2-2-2---2-2---2---2---2-2---2-2-|
E|--------------------------------|--------------------------------|

e|0-0-0---0-0---0---0---0-0---0-0-|0-0-0---0-0---0---0---0-0---0-0-|
B|0-0-0---0-0---0---0---0-0---0-0-|0-0-0---0-0---0---0---0-0---0-0-|
G|1-1-1---1-1---1---1---1-1---1-1-|1-1-1---1-1---1---1---1-1---1-1-|
D|0-0-0---0-0---0---0---0-0---0-0-|0-0-0---0-0---0---0---0-0---0-0-|(x2)
A|2-2-2---2-2---2---2---2-2---2-2-|2-2-2---2-2---2---2---2-2---2-2-|
E|--------------------------------|--------------------------------|

(Guitar 1)
e|5---8---5-------|
B|------------5---|
G|----------------|
D|----------------|(x4)
A|----------------|
E|----------------|

(Guitar 2)
e|5-5-5-----------|
B|5-5-5-----------|
G|5-5-5-----------|
D|7-7-7-----------|
A|7-7-5-----------|
E|5-5-5-----------|

************************************

| p   pull-off

************************************

            
            
Suggest correction
Creating personal tab
Creating personal tab
You can edit any tab online and save it as your Personal.

You can edit, replace or remove any tab part or add personal notes – all changes will be seen only by you.

Personal tabs can be accessed anytime from any device, even offline.
Learn more »
comments
print report bad tab
guest
You may want to rate the tab now too:
select rating
Wanna post a correction for this tab? Suggest correction