Oops, an error
Loading. Please wait.

Sin City tab

version 1
version 1

Whole song

Interactive

7,115 views 9 this week
6 commentsread comments
1 2 3 4 5
x 6
add to favorites
×
Save as Personal and add changes to this tab that will be seen only by you. Learn more ›
×
You can save this tab as Personal to edit and correct it or add notes. All changes will be seen only by you. Learn more »
launch autoscroll
font size
0
reset
how to read this tab
guitar tuner
edit
Autoscroll
slow
fast
+/-
esc
set tempo
stop
Sin City - Upon A Burning Body
--------------------------------
Tabbed by: GuitarMan0182
E-mail: tylertisi80@gmail.com
Corrections are welcome.

Tuning: Bb F Bb Eb G C


[Intro]
Guitar 1     4x                                          2x
C |---------------------------|-----------------------------------------------------------|
G |---------------------------|-----------------------------------------------------------|
Eb|---------------------------|-----------------------------------------------------------|
Bb|00000-000-000-0000-333333--|0000-0--0000-0--0000-0--0000----00000-000-000-0000-33333---|
F |00000-000-000-0000-333333--|0000-0--0000-0--0000-0--0000-7*-00000-000-000-0000-33333---|
Bb|00000-000-000-0000-333333--|0000-0--0000-0--0000-0--0000----00000-000-000-0000-33333---|
   ..... ... ... .... ......   ....    ....    ....    ....    ..... ... ... .... .....
                                          2nd time play 5*--^

                                                   Repeat 2x
Guitar 2                 2x
C |----------------------------------------------------|------------------------------------------|
G |----------------------------------------------------|15b-14p12-14------------------------------|
Eb|--15--15--15-16--16-13-15-13-12h14---15--15--15-16--|------------------------------------------|
Bb|13--13--13-------------------------13--13--13-------|------------------------------------------|
F |----------------------------------------------------|------------------------------------------|
Bb|----------------------------------------------------|------------------------------------------|


And I'm ready for war.....

Guitar 1
C |----------------------------------5+---------------------------------------|
G |----------------------------------5+---------------------------------------|          
Eb|----------------------------------5+---------------------------------------|
Bb|2-2-------2-2------0-----2-2--0--------------------------------------------|       
F |2-2-------2-2------0-----2-2--0--------------------------------------------|
Bb|2-2-------2-2--\/\-0-----2-2--0--------------------------------------------|
   . .       . .            . .  .

*\/\=place hand lightly over strings, go down
near the 12th fret and back up, then back down.
You'll know what I mean when you hear it.

Guitar 2                Repeat 5x
C |---------------------------------------------------------------------------|
G |---------------------------------------------------------------------------|
Eb|---------------------------------------------------------------------------|
Bb|---------------------------------------------------------------------------|
F |--------4---3-1------------------------------------------------------------|
Bb|0000000---00---------------------------------------------------------------|
   .......   ..

[Verse]
Guitar 1
C |---------------------------------|------------|------------------------|
G |------------2x-------------------|--1st-time--|---2nd time-------------|
Eb|---------------------------------|------------|------------------------|
Bb|---------------------------------|5-3-2-2/3\5-|5-3-2-0-0-0-0-----------|
F |00000--3-000000000-5-000000-7/6--|5-3-2-2/3\5-|5-3-2-0-0-0-0-----------|
Bb|00000----000000000---000000------|5-3-2-2/3\5-|5-3-2-0-0-0-0-----------|
   .....    .........   ......                            . . .

Guitar 2
C |---------------------------------|------------|-------------------------|
G |-----------2x--------------------|--1st-time--|---2nd-time--------------|
Eb|---------------------------------|------------|-------------------------|
Bb|0-0-0-0-0-0-0-0-0-0-3-0-5-0-0-0--|5-3-2-2/3\5-|5-3-2-0-0-0-0------------|
F |0-0-0-0-0-0-0-0-0-0-3-0-5-0-0-0--|5-3-2-2/3\5-|5-3-2-0-0-0-0------------|
Bb|0-0-0-0-0-0-0-0-0-0-3-0-5-0-0-0--|5-3-2-2/3\5-|5-3-2-0-0-0-0------------|
   . . . . . . . . . .       . . .                        . . .

[Pre-chorus]
Guitar 1-plays part 2x   Guitar 2-plays 1x
C |------------------------------------------------------------------------|
G |------------------------------------------------------------------------|
Eb|------------------------------------------------------------------------|
Bb|5-3-2-000-5-3-2-000-00-5-3-2-22-0-00-2----------------------------------|
F |5-3-2-000-5-3-2-000-00-5-3-2-22-0-00-2----------------------------------|
Bb|5-3-2-000-5-3-2-000-00-5-3-2-22-0-00-2----------------------------------|
                   ... ..       ..   ..

Guitar 2
C |------------------------------------------------------------------------|
G |------9--------8-------9--------8--------9--------8-----7h9h10\12b/-----|
Eb|10-8-7--10-8-7---10-8-7--10-8-7---10-8-7---10-8-7--7h9h10---------------|
Bb|------------------------------------------------------------------------|
F |------------------------------------------------------------------------|
Bb|------------------------------------------------------------------------|


[Chorus]
Guitar 1
C |------------------------------------------------|--------------------------------------|----------|
G |------------------------------------------------|---------------3x---------------------|----------|
Eb|------------------------------------------------|--------------------------------------|----------|
Bb|000-0-----0000-0000-------0000-0-0-00--5-3-2-000|--------------------------------------|5-3-0-0-0-|
F |000-0-----0000-0000-------0000-0-0-00--5-3-2-000|0000-3-0000-5-00000-8p5-00000-7-0000-3|5-3-0-0-0-|
Bb|000-0-----0000-0000-------0000-0-0-00--5-3-2-000|0000---0000---00000-----00000---0000--|5-3-0-0-0-|
   ... .     .... ....       .... . . ..        ... ....   ....   .....     .....   ....       . . .  

Guitar 2
C |------------------------------------------------|---------------------------------------|----------|
G |------------------------------------------------|---------------------------------------|----------|
Eb|------------------------------------------------|---------------------------------------|----------|
Bb|---------------------------------------5-3-2-000|0-0-0-0-0-0-0-0-0-0-0-0-0-0-0-0-0-0-0-0|5-3-0-0-0-|
F |---------------------------------------5-3-2-000|0-0-0-0-0-0-0-0-0-0-0-0-0-0-0-0-0-0-0-0|5-3-0-0-0-|
Bb|0000000000000000000000-3b-00000000000--5-3-2-000|0-0-0-0-0-0-0-0-0-0-0-0-0-0-0-0-0-0-0-0|5-3-0-0-0-|
   ......................    ............       ... . . . . . . . . . . . . . . . . . . . .     . . .


   Left        Right      Both    GUILTY AS CHARGED!
C |-----------|----------|-------|------------------------------------|
G |-----------|----------|-------|------------------------------------|
Eb|-----------|----------|-------|------------------------------------|
Bb|2222-2-2-2-|2222------|0-0----|------------------------------------|
F |3333-3-2-2-|3333------|0-0----|------------------------------------|
Bb|2222-2-2-2-|2222------|0-0----|------------------------------------|
   ....   .    ....       . .

Guitar 1
C |---------------------------------|---------------------------------------------------------------|
G |------------2x-------------------|---------------------------------------------------------------|
Eb|---------------------------------|---------------------------------------------------------------| 
Bb|1111-1-1-1--1111-1-1-1--1111-1---|000000-0-0000-00000-00------------00000-0-0000-00000-5-3-0-0-0-|
F |3333-3-2-2--3333-3-2-2--3333-3---|000000-0-0000-00000-00------------00000-0-0000-00000-5-3-0-0-0-|
Bb|1111-1-1-1--1111-1-1-1--1111-1---|000000-0-0000-00000-00------------00000-0-0000-00000-5-3-0-0-0-|
   ....   .    ....   .    ....      ...... . .... ..... ..            ..... . .... .....     . . .

Guitar 2
C |---------------------------------|----------------------------------------------------------------|
G |------------2x-------------------|----------------------------------------------------------------|
Eb|---------------------------------|-----------------------------------------------------10-8-------|
Bb|1111-1-1-1--1111-1-1-1--1111-1---|-----------------------------------------------------x--x-0-0-0-|
F |3333-3-2-2--3333-3-2-2--3333-3---|5---3-2-1-----------------5+----5---3-2-1------------8--6-0-0-0-|
Bb|1111-1-1-1--1111-1-1-1--1111-1---|-3-2-----0000-000000-00----------3-2------00000-00000-----0-0-0-|
   ....   .    ....   .    ....               .... ...... ..                   ..... .....     . . .

[Pre-chorus]
Guitar 1-plays part 2x   Guitar:2-plays 1x
C |--------------------------------------------------------------------------|
G |--------------------------------------------------------------------------|
Eb|--------------------------------------------------------------------------|
Bb|5-3-2-000-5-3-2-000-00-5-3-2-22-0-00-2------------------------------------|
F |5-3-2-000-5-3-2-000-00-5-3-2-22-0-00-2------------------------------------|
Bb|5-3-2-000-5-3-2-000-00-5-3-2-22-0-00-2------------------------------------|
                   ... ..       ..   ..

Guitar 2
C |-------------------------------------------------------------------------|
G |------9--------8-------9--------8--------9--------8-----7h9h10\12--------|
Eb|10-8-7--10-8-7---10-8-7--10-8-7---10-8-7---10-8-7--7h9h10----------------|
Bb|-------------------------------------------------------------------------|
F |-------------------------------------------------------------------------|
Bb|-------------------------------------------------------------------------|


[Chorus]
Guitar 1
C |------------------------------------------------|--------------------------------------|---------|
G |------------------------------------------------|---------------3x---------------------|---------|
Eb|------------------------------------------------|--------------------------------------|---------|
Bb|000-0-----0000-0000-------0000-0-0-00--5-3-2-000|--------------------------------------|5-3-0-0-0|
F |000-0-----0000-0000-------0000-0-0-00--5-3-2-000|0000-3-0000-5-00000-8p5-00000-7-0000-3|5-3-0-0-0|
Bb|000-0-----0000-0000-------0000-0-0-00--5-3-2-000|0000---0000---00000-----00000---0000--|5-3-0-0-0|
   ... .     .... ....       .... . . ..        ... ....   ....   .....     .....   ....       . . .

Guitar 2
C |------------------------------------------------|---------------------------------------|----------|
G |------------------------------------------------|---------------------------------------|----------|
Eb|------------------------------------------------|---------------------------------------|----------|
Bb|---------------------------------------5-3-2-000|0-0-0-0-0-0-0-0-0-0-0-0-0-0-0-0-0-0-0-0|5-3-0-0-0-|
F |---------------------------------------5-3-2-000|0-0-0-0-0-0-0-0-0-0-0-0-0-0-0-0-0-0-0-0|5-3-0-0-0-|
Bb|0000000000000000000000-3b-00000000000--5-3-2-000|0-0-0-0-0-0-0-0-0-0-0-0-0-0-0-0-0-0-0-0|5-3-0-0-0-|
   ......................    ............       ... . . . . . . . . . . . . . . . . . . . .     . . .

LIFE SUCKS AND THEN YOU DIE

Guitar 1
C |------------------------------------------------------|---------------------|
G |-----------------------------------2x-----------------|---------------------|
Eb|------------------------------------------------------|---------------------|
Bb|------------------------0000-0------------0000-0------|--0-0-0--------------|
F |------------------------0000-0------------0000-0------|--0-0-0--------------|
Bb|------------------------0000-0--00-0------0000-0------|--0-0-0--------------|
                           ....    ..                       . . .
Guitar 2
C |------------------------------------------------------|---------------------|
G |-----------------------------------2x-----------------|---------------------|
Eb|------------------------------------------------------|---------------------|
Bb|------------------------00000-0-----------0000-0------|--0-0-0--------------|
F |------------------------00000-0-----------0000-0------|--0-0-0--------------|
Bb|------------------------00000-0------00-0-0000-0------|--0-0-0--------------|
                           .....        ..                  . . .
Guitar 1 and 2
C |---------------------------------|------------|---------------------|
G |---------2x----------------------|-1st-time---|-2nd-time------------|
Eb|---------------------------------|--ending----|--ending-------------|
Bb|000--000-00000-000000------------|2-0-00-0-0--|5--3--0--------------|
F |000--000-00000-000000------------|2-0-00-0-0--|5--3--0--------------|
Bb|000--000-00000-000000------------|2-0-00-0-0--|5--3--0--------------|
   ...  ... ..... ......                 .. . .

Guitar 2
C |------------------|
G |-2nd-time---------|
Eb|--ending----------|
Bb|12/0--------------|
F |12/0--------------|
Bb|12/0--------------|


************************************

 | /   slide up
 | \   slide down
 | h   hammer-on
 | p   pull-off
 | +   harmonic
 | x   Dead note
 | .   Palm mute

 ************************************

            
            
Suggest correction
Creating personal tab
Creating personal tab
You can edit any tab online and save it as your Personal.

You can edit, replace or remove any tab part or add personal notes – all changes will be seen only by you.

Personal tabs can be accessed anytime from any device, even offline.
Learn more »
comments
print report bad tab
6 comments total. Showing first comments.
0 reply
SSympathy 40 Aug 29, 2013 09:49 AM

if you take requests, would you do carlito's way? pretty good job on this one

-1 reply
GuitarMan0182 126 Aug 29, 2013 03:52 PM

Thanks! And I'll keep Carlito's Way in mind.

-1 reply
GuitarMan0182 126 Aug 31, 2013 06:22 PM

On the pre chorus guitar 1 plays that part 2x NOT 4x

guest
You may want to rate the tab now too:
select rating
Wanna post a correction for this tab? Suggest correction