Oops, an error
Loading. Please wait.

Lionehearted solo tab

117 views 1 this week
no commentswrite comment
1 2 3 4 5
3 more votes to show rating
add to favorites
×
Save as Personal and add changes to this tab that will be seen only by you. Learn more ›
×
You can save this tab as Personal to edit and correct it or add notes. All changes will be seen only by you. Learn more »
launch autoscroll
font size
0
reset
how to read this tab
guitar tuner
edit
Autoscroll
slow
fast
+/-
esc
set tempo
stop
Author
-------------------------------------------------------------------------------
                             Lionhearted - Urban Cone (Live version)
-------------------------------------------------------------------------------
This is the part that kicks in after that awesome drum part at 2:55 (Live version). 
Sounds great with Spring Reverb and distortion. 

Tuning: Standard
    C       G   D#      A#  D   D#  F       A#  D  D#
e|---------------------------------------------------------------------------|
B|---------------------------------------------------------------------------|
G|----------------------15------------------15-------------------------------|
D|----------17----------------------15---------------------------------------|
A|--15----------18----------17--18--------------17--18-----------------------|
E|---------------------------------------------------------------------------|

You might want to tremolo pick that first 15 and definitely put on a virbrato every note after.
    C       G   D#      A#  D   D#  F       A#  D   D#  C
e|---------------------------------------------------------------------------|
B|---------------------------------------------------------------------------|
G|----------------------15------------------15-------------------------------|
D|----------17----------------------15------------------15-------------------|
A|--15----------18----------17--18--------------17--18-----------------------|
E|---------------------------------------------------------------------------|

This is in the key on C minor. Notes are C, G, D#, A#, D, D#, F, A#, D, D#, C in that order.
Playing like that doesn't sound quite right though so try this:

    C       G   D#      A#  D   D#  F       A#  D   D#
e|----------15----------18----------13------18-------------------------------|
B|--13----------16----------15--16--------------15--16-----------------------|
G|---------------------------------------------------------------------------|
D|---------------------------------------------------------------------------|
A|---------------------------------------------------------------------------|
E|---------------------------------------------------------------------------|

    C       G   D#      A#  D   D#  F       A#  D   D#  C
e|----------15----------18----------13------18----------13-------------------|
B|--13----------16----------15--16--------------15--16-----------------------|
G|---------------------------------------------------------------------------|
D|---------------------------------------------------------------------------|
A|---------------------------------------------------------------------------|
E|---------------------------------------------------------------------------|
But hey even that doesn't sound quite right so I've either got the notes wrong 
or they're using a different tuning.

************************************

| /   slide up
| \   slide down
| h   hammer-on
| p   pull-off
| ~   vibrato
| +   harmonic
| x   Mute note
| b   Bend
| pb  Pre-bend
| br  Bend release
| pbr Pre-bend release
| brb Bend release bend

************************************

            
            
Suggest correction
Creating personal tab
Creating personal tab
You can edit any tab online and save it as your Personal.

You can edit, replace or remove any tab part or add personal notes – all changes will be seen only by you.

Personal tabs can be accessed anytime from any device, even offline.
Learn more »
Give kudos to tab author, rate the tab!
1 2 3 4 5
comments
print report bad tab
guest
You may want to rate the tab now too:
select rating
Wanna post a correction for this tab? Suggest correction