Oops, an error
Loading. Please wait.

First Of Summer Acoustic tab

2,242 views 75 this week
8 commentsread comments
1 2 3 4 5
x 4
add to favorites
×
Save as Personal and add changes to this tab that will be seen only by you. Learn more ›
×
You can save this tab as Personal to edit and correct it or add notes. All changes will be seen only by you. Learn more »
launch autoscroll
font size
0
reset
how to read this tab
guitar tuner
edit
Autoscroll
slow
fast
+/-
esc
set tempo
stop
----------------------------------------------------------------------------
    First of Summer Live Acoustic Session - https://youtu.be/IOi0liTn6Xo
----------------------------------------------------------------------------
Date Tabbed: Feb 18,2017
Tabbed by: Christian john roudier Y. Agcol
Email: imbisiboltrade@gmail.com
Ytube: agcoldaimbisibol/Maharlikang Pilipino
Tuning: 1/2 step down, Drop D

[Intro]
eb|-----------------3---|
Bb|-----5-5-5-5-3-3-----|
Gb|----5-5-5-5-5-5-5----|
Db|---------------------|
Ab|---------------------|
Db|---------------------|


eb|---------------------------------|
Bb|---------------------------------|
Gb|---7/9-9-9-9--9-5-3---5-5-5-5-5--| 4x
Db|---5/7-7-7-7--7-5-3---3-3-3-3-3--|
Ab|---5/7-7-7-7--7-5-3---3-3-3-3-3--|
Db|---5/7-7-7-7--7-5-3---3-3-3-3-3--|

eb|---3-3-3-3-3--|
Bb|---5-5-5-5-5--|
Gb|---5-5-5-5-5--| 2x
Db|---3-3-3-3-3--|
Ab|---3-3-3-3-3--|
Db|---3-3-3-3-3--|
      .....Parked car, this night sky............. Like Diamonds

eb|--------------------------|---------------------------------------------------------------|
Bb|--------------------------|---------------------------------------------------------------|
Gb|---7/9-9-9-9--5-5-5-5-5---|--7/9-9-9-9--7-7-5---5-5-5-5-5---7/9-9-9-9--7-7-5---5-5-5-5-5--|
Db|---5/7-7-7-7--3-3-3-3-3---|--5/7-7-7-7--7-5-3---3-3-3-3-3---5/7-7-7-7--7-5-3---3-3-3-3-3--|
Ab|---5/7-7-7-7--3-3-3-3-3---|--5/7-7-7-7--7-5-3---3-3-3-3-3---5/7-7-7-7--7-5-3---3-3-3-3-3--|
Db|---5/7-7-7-7--3-3-3-3-3---|--5/7-7-7-7--7-5-3---3-3-3-3-3---5/7-7-7-7--7-5-3---3-3-3-3-3--|
      Our song   plays on      the radio oh oh oh

eb|-7---|
Bb|-8~--|
Gb|-9~--| let ring or pluck
Db|-10~-|
Ab|-7~--|
Db|-7~--|
      We're living it up...

eb|-7---|
Bb|-8~--|
Gb|-9~--|
Db|-10~-|
Ab|-7~--|
Db|-7~--|
      We own the world..

eb|--------|
Bb|-5-5-5--|
Gb|-5-5-5--|
Db|-3-3-3--|
Ab|-3-3-3--|
Db|-3-3-3--|
      Alone with you tonight 

eb|--------|
Bb|-5-5-5--|
Gb|-5-5-5--|
Db|-3-3-3--|
Ab|-3-3-3--|
Db|-3-3-3--|
      Further in you feels so right  

eb|------------------------------------|---------------------------------------|
Bb|------------------------------------|---------------------------------------|
Gb|-7/9-9-9-9--7-7-5---5-5-5-5-5-------|---------7/9-9-9-9--7-7-5---5-5-5-5-5--|
Db|-5/7-7-7-7--7-5-3---3-3-3-3-3-------|---------5/7-7-7-7--7-5-3---3-3-3-3-3--|
Ab|-5/7-7-7-7--7-5-3---3-3-3-3-3-------|---------5/7-7-7-7--7-5-3---3-3-3-3-3--|
Db|-5/7-7-7-7--7-5-3---3-3-3-3-3-------|---------5/7-7-7-7--7-5-3---3-3-3-3-3--|
       .....Parked car, this night sky............. Like Diamonds

eb|---------------------------|   |-------------------------------|
Bb|---------------------------|   |-------------------------------|
Gb|---9-9-9-9-9----5-5-5-5-5--|   |-7/9-9-9-9--7-7-5---5-5-5-5-5--|2x
Db|---7-7-7-7-7----3-3-3-3-3--|   |-5/7-7-7-7--7-5-3---3-3-3-3-3--|
Ab|---7-7-7-7-7----3-3-3-3-3--|   |-5/7-7-7-7--7-5-3---3-3-3-3-3--|
Db|---7-7-7-7-7----3-3-3-3-3--|   |-5/7-7-7-7--7-5-3---3-3-3-3-3--|
      Our song     plays on the     radio oh oh oh

eb|-7---3--|
Bb|-8~--5~-|
Gb|-9~--5~-|
Db|-10~-3~-|
Ab|-7~--3~-|
Db|-7~--3~-|

eb|-7---|
Bb|-8~--|
Gb|-9~--| let ring or pluck
Db|-10~-|
Ab|-7~--|
Db|-7~--|
      We're giving it up in just a little more 

eb|-7---|
Bb|-8~--|
Gb|-9~--| let ring or pluck
Db|-10~-|
Ab|-7~--|
Db|-7~--|
      This heartfelt leap i surrender

eb|--------|
Bb|-5-5-5--|
Gb|-5-5-5--|
Db|-3-3-3--|
Ab|-3-3-3--|
Db|-3-3-3--|
       Arms raised tonight

eb|-3-3-3---------|
Bb|-5-5-5-----8~--|
Gb|-5-5-5-----7~--|
Db|-3-3-3-----5~--|
Ab|-3-3-3-----5~--|
Db|-3-3-3-----5~--|
      (arms raised)
 
eb|-----|
Bb|-8~--|
Gb|-9~--| strum 
Db|-10~-|
Ab|-7~--|
Db|-----|
      We're giving it up in just a little more 

eb|--------|
Bb|-7~---12|
Gb|-9~---14| strum
Db|-7~---12|
Ab|-7~--/12|
Db|--------|
      This heartfelt leap i surrender

eb|-3--|
Bb|-5--|
Gb|-5--| strum
Db|-3--|
Ab|-3--|
Db|-3--|
       Arms raised tonight

eb|-3-3-3---------|
Bb|-5-5-5-----8~--|
Gb|-5-5-5-----7~--|
Db|-3-3-3-----5~--|
Ab|-3-3-3-----5~--|
Db|-3-3-3-----5~--|
      (arms raised)

eb|-----------3~-------|
Bb|-0~---1~---5~---8~--|
Gb|-0~---0~---5~---7~--| pluck
Db|-2~---2~---3~---5~--|
Ab|-3~--------3~---5~--|
Db|--------------------|
              wo oh ohh

eb|-----|
Bb|-5~--|
Gb|-5~--|
Db|-3~--|
Ab|-3~--|
Db|-3~--|
      Anywhere with you 2x

eb|--------------------------|
Bb|-8~------8-------5--------|
Gb|-9~------7-------5--------|
Db|-10~-----5-------3--------|
Ab|-7~------5-------3--------|
Db|-7~------5-------3--------|
      Anywhere with you

eb|--------|
Bb|-5-5-5--|
Gb|-5-5-5--| 2x
Db|-3-3-3--|
Ab|-3-3-3--|
Db|-3-3-3--|
      Drive me away..

eb|--------|
Bb|-5-5-5--|
Gb|-5-5-5--| 2x
Db|-3-3-3--|
Ab|-3-3-3--|
Db|-3-3-3--|
      Take me away with you tonight 

eb|----------|-----------------------|
Bb|-8--8--8--|--8-8-8----5-5-5-------|
Gb|-9--9--9--|--7-7-7----5-5-5-------|
Db|-10-10-10-|--5-5-5----3-3-3-------|
Ab|-7--7--7--|--5-5-5----3-3-3-------|
Db|-7--7--7--|--5-5-5----3-3-3-------|
      Anywhere with you 

eb|--------|
Bb|-5-5-5--|
Gb|-5-5-5--| 2x
Db|-3-3-3--|
Ab|-3-3-3--|
Db|-3-3-3--|
      Drive me away..

eb|----------|-----------------------|
Bb|-10-10-10-|--8-8-8----------------|
Gb|-7--7--7--|--9-9-9----------------|
Db|-7--7--7--|--7-7-7----------------|
Ab|-7--7--7--|--7-7-7----------------|
Db|-7--7--7--|--7-7-7----------------|
      Take me away with you tonight
eb|----------|-----------------------|
Bb|-8--8--8--|--8-8-8----5-5-5-------|
Gb|-9--9--9--|--7-7-7----5-5-5-------|
Db|-10-10-10-|--5-5-5----3-3-3-------|
Ab|-7--7--7--|--5-5-5----3-3-3-------|
Db|-7--7--7--|--5-5-5----3-3-3-------|
      Anywhere with you 

eb|----|
Bb|-5--|
Gb|-5--|pluck
Db|-3--|
Ab|-3--|
Db|-3--|
      Parked car, this night sky............. Like Diamonds

CM7
Our song plays on
Am7
Our song plays on
CM7
Our song plays on
Am7
Our song plays on


eb|-------------------------7~strum--------------|
Bb|-12~---------------------8~strum--------------|
Gb|-12~strum----------------9~strum--------------| 2x
Db|-10~---------------------10~strum-------------|
Ab|-10~---------------------7~strum--------------|
Db|-------------------------7~strum--------------|
      Parked car, night sky Alone with you tonight 2x

[Outro]
eb|---------------------------------|          eb|-----|
Bb|---------------------------------|          Bb|-5~--|
Gb|---7/9-9-9-9--7-7-5---5-5-5-5-5--| 4x       Gb|-5~--|
Db|---5/7-7-7-7--7-5-3---3-3-3-3-3--|          Db|-3~--|
Ab|---5/7-7-7-7--7-5-3---3-3-3-3-3--|          Ab|-3~--|
Db|---5/7-7-7-7--7-5-3---3-3-3-3-3--|          Db|-3~--|
 
***********************************

| h   Hammer-on
| x   Dead note
| /   Slide-up
| ~   Let Ring

***********************************

            
            
Suggest correction
Creating personal tab
Creating personal tab
You can edit any tab online and save it as your Personal.

You can edit, replace or remove any tab part or add personal notes – all changes will be seen only by you.

Personal tabs can be accessed anytime from any device, even offline.
Learn more »
comments
print report bad tab
8 comments total. Showing first comments.
0 reply
christiancad2012 57 Feb 20, 2017 02:02 PM

comment and rate. thanks!

0 reply
chrome_j 84 Feb 23, 2017 07:47 AM

nice tab!!

0 reply
khryzacvec 20 Feb 26, 2017 08:34 PM

Nice tab, thank you for this, can you tab the other songs in the video? that will be so fckn good :D

guest
You may want to rate the tab now too:
select rating
Wanna post a correction for this tab? Suggest correction