Oops, an error
Loading. Please wait.

Guillotine tab

version 2
version 2

Whole song

Interactive

5,051 views 1 this week
2 commentsread comments
1 2 3 4 5
1 last vote to show rating
add to favorites
×
Save as Personal and add changes to this tab that will be seen only by you. Learn more ›
×
You can save this tab as Personal to edit and correct it or add notes. All changes will be seen only by you. Learn more »
launch autoscroll
font size
0
reset
how to read this tab
guitar tuner
edit
Autoscroll
slow
fast
+/-
esc
set tempo
stop
Author
Urbandub - Guillotine
Under tha southern lights album (BUY the real thing, dont settl for pirated)
(self kapa)
For rhythm guitarists only... 
standard tuning
tabbed by: James Patrick Aliento


INTRO
|-----------------------------|
|-----------------------------|
|-----------------------------|
|----2------4-----x-x--4------|
|----2--------4h5-x-x----4h5--|
|----0------------x-x---------|


|------------------------------|
|------------------------------|
|------------------------------|
|---4-2------4-----x-x--4------|
|---4-2--------4h5-x-x----4h5--|
|---2-0------------x-x---------|


|------------------------------|
|------------------------------|
|------------------------------|
|---4-6------4-----x-x--4------|
|---4-6--------4h5-x-x----4h5--|
|---2-4------------x-x---------|


|--------------------------------|
|--------------------------------|
|--------------------------------|
|--9--4\2------4-----x-x--4------|
|--9--4\2--------4h5-x-x----4h5--|
|--7--2\0------------x-x---------|

Verse
part1
|-----------------------------|
|-----------------------------|
|-----------------------------|
|---4-4/6-6-------------------|
|---4-4/6-6-------------------|
|---2-2/4-4-------------------|


|-------------|-------|------------|
|-------------|-------|------------|
|-------------|-------|------------|
|---4/6-6-----|-2-----|-4----------|
|---4/6-6-----|-2-----|-4----------|
|---2/4-4-----|-0-----|-2----------|

part 2
|-----------------------------|
|-----------------------------|
|-----------------------------|
|---9-4/6-6-4h6---------------|
|---9-4/6-6----4h6-2h4--------|
|---7-2/4-4-------------------|


|-----------------------------|
|-----------------------------|
|-----------------------------|
|---4-4/6-6-4h6---------------|
|---4-4/6-6----4h6-2h4--------|
|---2-2/4-4-------------------|

|-----------------------------|
|-----------------------------|
|-----------------------------|
|--2--------4h6---------------|
|--2-----------4h6-2h4--------|
|--0--------------------------|

|-----------------------------|
|-----------------------------|
|-----------------------------|
|--2-4------4h6---------------|
|--2-4---------4h6-2h4--------|
|--0-2-----------------2------|

she's with someone new...
|---------------------|
|---------------------|
|---------------------|
|---2-----------------| (sa part na toh, i palm mute lng tpos pakinggan nyo 
|---2-----------------| ung kanta)
|---0-----------------|



Chorus

|---------------------|
|---------------------|
|---------------------|
|---4---9---2---------| (ayan ung chords... pakinggan nyo n lng kng pano 
|---4---9---2---------|  istrum)
|---2---7---0---------|

Verse part2

Chorus

tpos kapain nyo n lng ung iba.. hehe nkakatamad na...



            
            
Suggest correction
Creating personal tab
Creating personal tab
You can edit any tab online and save it as your Personal.

You can edit, replace or remove any tab part or add personal notes – all changes will be seen only by you.

Personal tabs can be accessed anytime from any device, even offline.
Learn more »
Give kudos to tab author, rate the tab!
1 2 3 4 5
comments
print report bad tab
2 comments total.
0 reply
doobidoo 6,271 Dec 28, 2007 12:40 AM

inc.

0 reply
xeph_ 150 Jan 16, 2008 06:02 PM

sabit. toink

guest
You may want to rate the tab now too:
select rating
Wanna post a correction for this tab? Suggest correction