Oops, an error
Loading. Please wait.

Run Away tab

version 4
version 4

Whole song

1,742 views 1 this week
no commentswrite comment
1 2 3 4 5
1 last vote to show rating
add to favorites
×
Save as Personal and add changes to this tab that will be seen only by you. Learn more ›
×
You can save this tab as Personal to edit and correct it or add notes. All changes will be seen only by you. Learn more »
launch autoscroll
font size
0
reset
how to read this tab
guitar tuner
edit
Autoscroll
slow
fast
+/-
esc
set tempo
stop
Song:Run Away
Album:Influence
Artist:Urban dub
Date Tabbed:June,2006
Guitar Tabber:Ryan Manongdo,16,m,Montalban Rizal
              forget_013@yahoo.com.ph(Friendster&YM)
              09229015724(Sun Cell)

Gtr.Legends:
~  - LET IT RING
x  - DEAD STRING
.  - PALM MUTING
p  - PULL-OFF
/\ - SLIDE

Gtr.Tuning:1/2 step down then drop d

Intro prt.1:
Gtr.1:           Gtr.2:
eb|-12~---12~--  -------------------------------------------|
Bb|-12~---12~--  -------------------------------------------|
Gb|------------  --9-----9----9-9---9------9----9---9-9-----|
Db|------------  ----9~----9~-----9---9------9~--9~----9~---|
Ab|------------  -------------------------------------------|
Db|------------  -------------------------------------------|
                              . .                   . .

Intro prt.2:
Gtr.1
eb|-------------------------------------------------------|
Bb|-----------------------------6-5--6p5--6p5-6p5-6-6h8---|
Gb|---------------------------6---------------------------| 3x
Db|--9-5--9-5--9-9-5-9-5----------------------------------| Then
Ab|--7-3--7-3--7-7-3-7-3----------------------------------|
Db|-------------------------------------------------------|
     . .  . .  . . . . .                 

eb|---------------------------|
Bb|---------------------------|
Gb|---------------------------| 
Db|--9-5--9-5--9-9-5-9-5-7~---|
Ab|--7-3--7-3--7-7-3-7-3-5~---|
Db|---------------------------|
     . .  . .  . . . . . 

Gtr.2:
eb|-----------------------------------------|
Bb|-----------------------------------------|
Gb|-4/5-12~---14-9---4/5-12~---14-9/10\9~---| 2x
Db|-x-x--x----xx-x---x-x-xx----xx-x-xx-x----|
Ab|-2/3-10~---12-7---2/3-10~---12-7/-8\7~---|
Db|-----------------------------------------|

Verse 1:
Here,I drove away from all...
eb|---------------------------------------------------|
Bb|--------------------------9------9----9-----9------|
Gb|----9---9---9-9---9---------9------9----9-----9~---| 3x
Db|--9---9---9-----9---9---9------9-----9----9--------| Then
Ab|---------------------------------------------------|
Db|---------------------------------------------------|
               . .

I think twice so I go...
eb|-----------------------------|
Bb|-----------------------------|
Gb|---9---9---9-9---9-----------|
Db|-9---9---9-----9---9~---7~---|
Ab|------------------------5~---|
Db|-----------------------------|
              . .

Pre-Chorus:
How do I,How do I mend the wounds...
Gtr.1:           Gtr.2:
eb|------------  -------------|
Bb|------------  -------------|
Gb|------------  --10-9-------|
Db|-888888888--  -------10~---|
Ab|-888888888--  -------------|
Db|-888888888--  -------------|


Chorus 1:
I need you,I want you here...
Gtr.1:                       
eb|---------------------------|
Bb|---------------------------|
Gb|---------------------------| 2x
Db|-33333--00000--888888888---|
Ab|-33333--00000--888888888---|
Db|-33333--00000--888888888---|

Gtr.2:
eb|-----------------------------------------------|
Bb|-----------------------------------------------|
Gb|-88-9-8-5--12-14-12-9---88-9-8-5--12-14-12-9---|
Db|-xx-x-x-x---x-xx--x-x---xx-x-x-x---x-xx--x-x---|
Ab|-66-7-6-3--10-12-10-7---66-7-6-3--10-12-10-7---|
Db|-----------------------------------------------|

Before Verse 2:
Gtr.1
eb|-----------------------------------------|
Bb|-----------------------------------------|
Gb|-----------------------------------------| 
Db|--9-5--9-5--9-9-5-9-5---9-5-9-5--9-9-5---|
Ab|--7-3--7-3--7-7-3-7-3---7-3-7-3--7-7-3---|
Db|-----------------------------------------|
     . .  . .  . . . . .   . . . .  . . .

Gtr.2:
eb|------------------------|
Bb|------------------------|
Gb|---9---9---9-9---9------| 2x
Db|-9---9---9-----9---9~---|
Ab|------------------------|
Db|------------------------|
              . .

Verse 2:Play the verse 1
Fool,to think I could break the rules...

I slowly break then I go...
eb|-------------|
Bb|-------------|
Gb|-------------|
Db|-xx-xx--7~---|
Ab|-xx-xx--5~---|
Db|-xx-xx-------|

Repeat the Pre-Chorus:

Repeat Chorus 1:

Chorus 2:
I'm sorry,I need to run...
Gtr.1:                       Gtr.2:
eb|------------------------  -------------------------------|
Bb|------------------------  -------------------------------|
Gb|------------------------  -12121212-10101010-9999-5555---|
Db|-33333-00000-888888888--  -------------------------------|
Ab|-33333-00000-888888888--  -------------------------------|
Db|-33333-00000-888888888--  -------------------------------|

Bridge:
Run away from home...
eb|--------------------|
Bb|--------------------|
Gb|--------------------|
Db|-5~--8~---5~---8~---|
Ab|-5~--8~---5~---8~---|
Db|-5~--8~---5~---8~---|

I lost my mind's gone...
eb|-------------------------|
Bb|-------------------------|
Gb|-------------------------|
Db|-55555-88888--55555-8~---|
Ab|-55555-88888--55555-8~---|
Db|-55555-88888--55555-8~---|

Repeat the Chorus 1 and 2:

Outro:
Dubidup dubi didup...
eb|-----------------------------|
Bb|-----------------------------|
Gb|-----------------------------|
Db|--333333-000000-8888888888---|
Ab|--333333-000000-8888888888---|
Db|--333333-000000-8888888888---|

Repeat Chorus 2
Then

Last Chords:
eb|-----------------|
Bb|-----------------|
Gb|-----------------|
Db|-11~--10~---0~---|
Ab|-11~--10~---0~---|
Db|-11~--10~---0~---|

End...

Run Away Lyrics

Verse 1:
Here,I drove away from all
I'm falling deep from the world
I know what I like I do
I think twice so I go

Pre-Chorus:
How do I,
How do I mend the wounds

Chorus 1:
I need you
I want you here
Coz I'm afraid

Verse 2:
Fool,to think I could break the rules
Damage inside steal I act cool
I'm dying over you
I slowly break then I go

Repeat Pre-Chorus:

Repeat Chorus 1:

Chorus 2:
I'm sorry,I need to run
Run..

Bridge:
Run away from home,
Matter the world no reasons
At all,I lost my minds gone
Everything can be whisked away

Repeat Chorus 1&2:

Dubidub dubi didup
dududup dududup

  I would like to greet first offcourse my ONLY ONLY ONE,then;my relatives,my
friends on Montalban(Brgy.Balite Espiritu Subd.),My traitor friends in our school
NSDAPS San Mateo Rizal,Cocklosas,Cocklisay.Cocktabijan,Cockpistrano,Cockyatano,Cockruz,
Franciscock,Picock,Fuckmittan,Redick,Simbulbulan,Frondosuso,Bayagin,Titesta,Aldick,and many
moore,our band club(COMBO-RATS),Project X,To all my txt mates and other companie,Red Porn Records,
My friends in YM and Friendster,and most of all,hi to God..

Padre Garrote:          Extra:

Dino Testa:Vocals       Andrei Frondoso:Xylophone,Triangles,Flute and Tamborine           
Edy Capistrano:Gtr.1    Mike Alvez:Sub-Guitar                               
Jiro Uezono:Gtr.2      
Ryan Manongdo:Bass       
Aeroll Cayetano:Drums 

            
            
Suggest correction
Creating personal tab
Creating personal tab
You can edit any tab online and save it as your Personal.

You can edit, replace or remove any tab part or add personal notes – all changes will be seen only by you.

Personal tabs can be accessed anytime from any device, even offline.
Learn more »
Give kudos to tab author, rate the tab!
1 2 3 4 5
comments
print report bad tab
guest
You may want to rate the tab now too:
select rating
Wanna post a correction for this tab? Suggest correction