Oops, an error
Loading. Please wait.

The Fight Is Over tab

version 2
version 2

Whole song

71,047 views 147 this week
no commentswrite comment
1 2 3 4 5
x 6
add to favorites
×
Save as Personal and add changes to this tab that will be seen only by you. Learn more ›
×
You can save this tab as Personal to edit and correct it or add notes. All changes will be seen only by you. Learn more »
launch autoscroll
font size
0
reset
how to read this tab
guitar tuner
edit
Autoscroll
slow
fast
+/-
esc
set tempo
stop
PLS LIKE OUR BAND FAN PAGE @ FACEBOOK -Arista(lucena) http://www.facebook.com/
pages/Arista-Lucena/226729694026830

by
f_sario@yahoo.com
Cp #-09283150081
SHC(BSN) Lucena

The Fight Is Over Tab by Urban Dub :

Tuning: Half-step down


[Intro]

  1.
  GtrI
D#|----3-----------3--------|-----3-----------3----------|
A#|----------3-----------3--|-----------3-----------3----|
F#|-5-----5-----5-----5-----|--5-----5-----5-----5-------|2x
C#|-------------------------|----------------------------|
G#|-------------------------|----------------------------|
D#|-------------------------|----------------------------|
2.
GtrI or do chords( Am G-F Am G-F Am G-F  G  F  )

D#|----3----------3----3-----------3---------|
A#|-3--------3----3---------3---------3------|
F#|-5-----5--5-5--5-------5-----5---5--------|
C#|-5-----5--5-5--5--------------------------|2x
G#|-0-----0--x-x--x--------------------------|
D#|----------5-5--3--------------------------|

D#|------------------3-----------3--------|-----3--------------------|
A#|------------------------3----------3---|-----------3~-------------|
F#|---4----4------5-----5-----5-----5-----|--5-----5-----------------|
C#|---5------5----5-----------------------|--------------------------|
G#|---5--------5--x-----------------------|--------------------------|
D#|---5-----------3-----------------------|--------------------------|

  GtrII
D#|-------------------------|----------------------------|
A#|-17~--15---13~~~-15~-----|----------13~---15-17~~~----|
F#|---------------------14~-|-12~-h14--------------------|
C#|-------------------------|----------------------------|
G#|-------------------------|----------------------------|
D#|-------------------------|----------------------------|

D#|-------------------------|----------------------------|
A#|----------13~---15~------|----------------------------|
F#|-12~-h14~----------14~---|-12~-h14--------------------|
C#|-------------------------|----------12~~~~~--15~~~~~~-|
G#|-------------------------|----------------------------|
D#|-------------------------|----------------------------|


[Verse]

  GtrI
D#|----3---------------3---------|---3-------------0~------|
A#|-3----------------3-----------|-3---------------0~------|
F#|-5---5-5--5-5-5---5-----------|-5---5-5--5-5-5--4~------|
C#|-5---5-5--5-5-5---5-----------|-5---5-5--5-5-5--3~------|
G#|-0---0-0--x-x-x---x-----------|-0---0-0--x-x-x--3~------|
D#|----------5-5-5---3-----------|----------5-5-5--3~------|

D#|----3----------------3-----------3---------|
A#|------------------3--------3---------------|
F#|-5---5-5--5-5-5---5-----5-----5------------|2x
C#|-5---5-5--5-5-5---5------------------------|
G#|-0---0-0--x-x-x---x------------------------|
D#|----------5-5-5---3------------------------|

GtrII (Am G-F) 4x


[Refrain]

  GtrI( G G Am-F )
D#|------------------------0-0-0--0-0-0-0-0-0--0~-----|
A#|------------------------x-x-x--0-0-0-0-0-0--0~-----|
F#|-5-4--------4-4-4-5-5-5-5-5-5--5-5-5-5-5-5--5~-----|
C#|-5-5--------5-5-5-5-5-5-5-5-5--5-5-5-5-5-5--5~-----|
G#|-x-x--------x-x-x-x-x-x-x-x-x--0-0-0-0-0-0--3~-----|
D#|-5-5--------5-5-5-5-5-5-5-5-5---------------3~-----|
GtrII ( G G Am-------------F )do w/effects



Chorus 

  I-C F Am F
  1.
  GtrI
D#|-3-------3--------3------|--3----------3--------3-----|
A#|---3--------3------------|-----3---------3------------|
F#|-----5--------5------5---|--------5---------5-------5-|
C#|-------------------------|----------------------------|
G#|-------------------------|----------------------------|
D#|-------------------------|----------------------------|
2.
GtrI

D#|---------------------------|--------------------------|
A#|---------------------------|--------------------------|
F#|-5-5-5-5-5-5-5-5-5-5-5-5-5-|-9-9-9-9-9-9-9-9-9-9-9-9--|
C#|-5-5-5-5-5-5-5-5-5-5-5-5-5-|-7-7-7-7-7-7-7-7-7-7-7-7--|
G#|-3-3-3-3-3-3-3-3-3-3-3-3-3-|-7-7-7-7-7-7-7-7-7-7-7-7--|
D#|-3-3-3-3-3-3-3-3-3-3-3-3-3-|-7-7-7-7-7-7-7-7-7-7-7-7--|

D#|---------------------------|
A#|---------------------------|
F#|-5-5-5-5-5-5-5-5-5-5-5-5-5-|
C#|-5-5-5-5-5-5-5-5-5-5-5-5-5-|
G#|-3-3-3-3-3-3-3-3-3-3-3-3-3-|
D#|-3-3-3-3-3-3-3-3-3-3-3-3-3-|

GtrII

D#|--------------------------------------|
A#|--------------------------------------|
F#|--------------------------------------|
C#|----12-10----12-10----12-10----12-10--|cont...
G#|----------10-------10-------10--------|
D#|--------------------------------------|

D#|--------------------------------------|
A#|--------------------------------------|
F#|-----10----14-------------------------|
C#|-3~--x-----x--------------------------|
G#|-3~--8~---s12~------------------------|
D#|-3~-----------------------------------|


[Interlude]

GtrI or do chords( Am G-F Am G-F Am G-F  G  F  )

D#|----------------------------------------|
A#|----------------------------------------|
F#|-9-9-9-9-9-9-5-5-5-5-5-5-5-5-5-5-5-5-5--|3x
C#|-7-7-7-7-7-7-5-5-5-5-5-5-5-5-5-5-5-5-5--|
G#|-7-7-7-7-7-7-x-x-x-3-3-3-3-3-3-3-3-3-3--|
D#|-7-7-7-7-7-7-5-5-5-3-3-3-3-3-3-3-3-3-3--|

D#|-------------------------------|
A#|-------------------------------|
F#|-5-5-5-5-5-5-5-5-5-5-5-5-5-5-5-|
C#|-5-5-5-5-5-5-5-5-5-5-5-5-5-5-5-|
G#|-x-x-x-x-x-x-x-x-x-x-x-x-x-x-x-|
D#|-5-5-5-5-5-5-5-3-3-3-3-3-3-3-3-|



  GtrII
D#|------------------------------------------------------|
A#|------------------------------------------------------|
F#|-5-/9--14/19--17~--9/10\9---5-/9--14-/19--14~--9/10\9-|
C#|------------------------------------------------------|
G#|-3-/7--12/17--15~--7/8-\7---3-/7--12-/17--12~--7/8-\7-|
D#|------------------------------------------------------|

D#|-----------------------------------------------------|
A#|-----------------------------------------------------|
F#|-5-/9--14/19--17~-/12-12-12--1010-10-10--------------|
C#|-----------------------------------------------------|
G#|-3-/7--12/17--15~-/10-10-10--8-8--8--8---------------|
D#|-----------------------------------------------------|
                                   *


[Verse 2]

D#|----------------------------------------|
A#|----------------------------------------|
F#|-9-9-9-9-9-9-5-5-5-5-5-5-5-5-5-5-5-5-5--|3x
C#|-7-7-7-7-7-7-5-5-5-5-5-5-5-5-5-5-5-5-5--|
G#|-7-7-7-7-7-7-x-x-x-x-3-3-3-3-3-3-3-3-3--|
D#|-7-7-7-7-7-7-5-5-5-5-3-3-3-3-3-3-3-3-3--|
GtrII

D#|-------------------------------------------------|
A#|-------------------------------------------------|
F#|-14-14---x--121212---------10---------10--10/99--|
C#|-x---x---x--x-x-x----------x----------x---x--xx--|2x
G#|-12-12---x--101010--8-8-8--8---8-8-8--8---8-/77--|
D#|-------------------------------------------------|
                     * * *      * * *
 2.
GtrI

D#|-------------------------------|
A#|-------------------------------|
F#|-5-5-5-5-5-5-5-5-5-5-5-5-5-5-5-|
C#|-5-5-5-5-5-5-5-5-5-5-5-5-5-5-5-|
G#|-x-x-x-x-x-x-x-x-x-x-x-x-x-x-x-|
D#|-5-5-5-5-5-5-5-3-3-3-3-3-3-3-3-|


D#|--------------------------------------------------------|
A#|--------------------------------------------------------|
F#|--------------------------------------------------------|
C#|-----10-9-----7s-9~~~~~~~-------------------------------|
G#|-7---------7--------------------------------------------|
D#|--------------------------------------------------------|


[Refrain]

GtrI( G G Am-F )

  GtrII(faster)-
D#|-----------------------------------------------------|    ---------------|
A#|-----------------------------------------------------|    ---------------|
F#|-----------------------------------------------------|    -12~~~~14~~~~~-|
C#|----12-10----12-10----12-10----12-10---12-10--14-12--|cont---------------|
G#|-10-------10-------10-------10-------10-----10-------|    -10----12------|
D#|-----------------------------------------------------|    ---------------|
  *  *   *  *  *  *  *  *  *  *  *  *  * * * * *   *


[Chorus]

  GtrI
D#|---------------------------|--------------------------|
A#|---------------------------|--------------------------|
F#|-5-5-5-5-5-5-5-5-5-5-5-5-5-|-5-5-5-5-5-5-5-5-5-5-5-5--|
C#|-5-5-5-5-5-5-5-5-5-5-5-5-5-|-5-5-5-5-5-5-5-5-5-5-5-5--|
G#|-3-3-3-3-3-3-3-3-3-3-3-3-3-|-3-3-3-3-3-3-3-3-3-3-3-3--|
D#|---------------------------|-3-3-3-3-3-3-3-3-3-3-3-3--|

D#|-------------------------|--------------------------|
A#|-------------------------|--------------------------|
F#|-9-9-9-9-9-9-9-9-9-9-9-9-|-5-5-5-5-5-5-5-5-5-5-5----|
C#|-7-7-7-7-7-7-7-7-7-7-7-7-|-5-5-5-5-5-5-5-5-5-5-5----|
G#|-7-7-7-7-7-7-7-7-7-7-7-7-|-3-3-3-3-3-3-3-3-3-3-3----|
D#|-7-7-7-7-7-7-7-7-7-7-7-7-|-3-3-3-3-3-3-3-3-3-3-3----|

GtrII

                            |<---------------cont------------------>|

D#|---------------------------|---------------------------------------|
A#|---------------------------|---------------------------------------|
F#|-5-5-5-5-5-5-5-5-5-5-5-5-5-|---------------------------------------|
C#|-5-5-5-5-5-5-5-5-5-5-5-5-5-|/12-10---12-10---12-10---12-10----12-10|
G#|-3-3-3-3-3-3-3-3-3-3-3-3-3-|------ 10------10------10------10------|
D#|---------------------------|---------------------------------------|


|<-----cont--------------------------------------------|

D#|-------------------------|----------------------------|
A#|-------------------------|----------------------------|
F#|-------------------------|-----/10----/14-------------|
C#|-12-10---12-10---12-10---|-3~---x------x--------------|
G#|-------10------10------10|-3~--/8~----/12~------------|
D#|-------------------------|-3~-------------------------|


[Bridge]

D#|--------------------------------------------------------|
A#|--------------------------------------------------------|
F#|--------------------------------------------------------|
C#|-7~---7~---5~---5~---3-3-3-3-3-3-3-3-3-3-3-3-3-3--------|
G#|-7~---7~---3~---3~---3-3-3-3-3-3-3-3-3-3-3-3-3-3--------|
D#|-7~---7~-------------3-3-3-3-3-3-3-3-3-3-3-3-3-3--------|

D#|-----------------------------------------|
A#|-----------------------------------------|
F#|-----------------------------------------|
C#|-7~-7--5~--5~---3-3~---3-3~---3-3~-------|
G#|-7~-7--3~--3~---3-3~---3-3~---3-3~-------|
D#|-7~-7~----------3-3~---3-3~---3-3~-------|

GtrII

D#|----------------------------------------------------------------------------|
A#|----------------------------------------------9-9-9-9-9---------------------|
F#|-------------------10-10-10-10-10-10-10-10-10-10-10-10-10-5-5-5-5-5-5-5-5---|
C#|-7~---7~---5~--5~--x--x--x--x--x--x--x--x--x--x--x--x--x--x-x-x-x-x-x-x-x---|
G#|-7~---7~---3~--3~--8--8--8--8--8--8--8--8--8--8--8--8--8--3-3-3-3-3-3-3-3---|
D#|-7~---7~--------------------------------------------------------------------|

D#|--------------|-------8-----------8-----------|
A#|--------------|---------------------------9~--|
F#|--------------|--9-10---9~----9-10---9~--10~--|
C#|-7~-7--5~--5~-|-------------------------------|
G#|-7~-7--3~--3~-|-------------------------------|
D#|-7~-7~--------|-------------------------------|


[Solo]

GtrI

D#|-----------------------------------------|
A#|-----------------------------------------|
F#|-9~-9~-12~-12~--5-5~---5-5~---5-5~-------|
C#|-7~-7--10~-10~--3-3~---3-3~---3-3~-------|
G#|-7~-7--10~-10~--3-3~---3-3~---3-3~-------|
D#|-7~-7~-10~-10~--3-3~---3-3~---3-3~-------|


D#|-----------------------------------------------------------------------------------------|
A#|-----------------------------------------------------------------------------------------|
F#|-9~-9~-1-2~-1-2~-10-10-10-10-10-10-10-10-10-10-10-10-10---13-13-13-13-13-13-13-13-13-13--|
C#|-7~-7--1-0~-1-0~-x--x--x--x--x--x--x--x--x--x--x--x--x----x--x--x--x--x--x--x--x--x--x---|
G#|-7~-7--1-0~-1-0~-8--8--8--8--8--8--8--8--8--8--8--8--8----11-11-11-11-11-11-11-11-11-11--|
D#|-7~-7~-1-0~-1-0~-------------------------------------------------------------------------|


GtrII
D#|--------------------------------------------------------------------------|
A#|-13~-12~-----13~-12~------------------------------------------------------|
F#|-----------------------12~-14~-------------------12~----------------------|
C#|--------14~---------14~--------12~-14~---9~--10~----12~-10~---9~--10~-----|
G#|----------------------------------------------------------------------10--|
D#|--------------------------------------------------------------------------|

D#|------------------------------------------|
A#|--13~-12~-----13~-12~---------------------|
F#|--------------------------12~-14~---------|
C#|----------14~---------14~---------12~-14~-|
G#|------------------------------------------|
D#|------------------------------------------|

D#|--------15----------------15---------------15--|
A#|--12-13---12-13-15-12-13----12-13-15-12-13-----|
F#|-----------------------------------------------|
C#|-----------------------------------------------|2x
G#|-----------------------------------------------|
D#|-----------------------------------------------|


[Chorus]

Chorus-GtrI
D#|---------------------------|--------------------------|
A#|---------------------------|--------------------------|
F#|-5-5-5-5-5-5-5-5-5-5-5-5-5-|-5-5-5-5-5-5-5-5-5-5-5-5--|
C#|-5-5-5-5-5-5-5-5-5-5-5-5-5-|-5-5-5-5-5-5-5-5-5-5-5-5--|
G#|-3-3-3-3-3-3-3-3-3-3-3-3-3-|-3-3-3-3-3-3-3-3-3-3-3-3--|
D#|---------------------------|-3-3-3-3-3-3-3-3-3-3-3-3--|

D#|-------------------------|--------------------------|
A#|-------------------------|--------------------------|
F#|-9-9-9-9-9-9-9-9-9-9-9-9-|-5-5-5-5-5-5-5-5-5-5-5----|
C#|-7-7-7-7-7-7-7-7-7-7-7-7-|-5-5-5-5-5-5-5-5-5-5-5----|
G#|-7-7-7-7-7-7-7-7-7-7-7-7-|-3-3-3-3-3-3-3-3-3-3-3----|
D#|-7-7-7-7-7-7-7-7-7-7-7-7-|-3-3-3-3-3-3-3-3-3-3-3----|
< br>

GtrII
  |<---------------cont------------------------------------------------|
D#|---------------------------|-----------------------------------------|
A#|---------------------------|-----------------------------------------|
F#|-5-5-5-5-5-5-5-5-5-5-5-5-5-|-----------------------------------------|
C#|-5-5-5-5-5-5-5-5-5-5-5-5-5-|/12-10---12-10---12-10---12-10----12-10--|
G#|-3-3-3-3-3-3-3-3-3-3-3-3-3-|------ 10------10------10------10--------|
D#|---------------------------|-----------------------------------------|


  |<-----cont----------------------------------------------------------|
D#|-------------------------|------------------------------------------|
A#|-------------------------|------------------------------------------|
F#|-------------------------|------------------------------------------|
C#|-12-10---12-10---12-10---|-----10-9----7-10-9---10-9-----7-10-9-----|
G#|-------10------10------10|---7-----7-10-------7------7-10-----------|
D#|-------------------------|------------------------------------------|
                                    *  *              *  *


D#|-------------------------------------------------|
A#|-------------------------------------------------|
F#|-5-5-5-5-5~--1-0----1--4-------------------------|
C#|-3-3-3-3-3~--x------x----------------------------|
G#|-3-3-3-3-3~--8-~---s12--~------------------------|
D#|-3-3-3-3-3~--------------------------------------|


[Outro]

  GtrI
D#|---------------------------|--------------------------|
A#|---------------------------|--------------------------|
F#|-5-5-5-5-5-5-5-5-5-5-5-5-5-|-5-5-5-5-5-5-5-5-5-5-5-5--|
C#|-5-5-5-5-5-5-5-5-5-5-5-5-5-|-5-5-5-5-5-5-5-5-5-5-5-5--|
G#|-3-3-3-3-3-3-3-3-3-3-3-3-3-|-3-3-3-3-3-3-3-3-3-3-3-3--|
D#|---------------------------|-3-3-3-3-3-3-3-3-3-3-3-3--|

D#|-------------------------|--------------------------|
A#|-------------------------|--------------------------|
F#|-9-9-9-9-9-9-9-9-9-9-9-9-|-5-5-5-5-5-5-5-5-5-5-5----|
C#|-7-7-7-7-7-7-7-7-7-7-7-7-|-5-5-5-5-5-5-5-5-5-5-5----|
G#|-7-7-7-7-7-7-7-7-7-7-7-7-|-3-3-3-3-3-3-3-3-3-3-3----|
D#|-7-7-7-7-7-7-7-7-7-7-7-7-|-3-3-3-3-3-3-3-3-3-3-3----|
GtrII

D#|--------------------------------------|
A#|--------------------------------------|
F#|--------------------------------------|
C#|---/12-10----12-10----12-10----12-10--|cont...
G#|----------10-------10-------10--------|
D#|--------------------------------------|


OutroII

  1.
D#|----------------|----------------------|
A#|----------------|----------------------|
F#|----5~----------|---5~-----------------|
C#|----5~----------|---5~-----------------|
G#|----3~----------|---3~-----------------|
D#|----------------|----------------------|
2.
D#|----------------|----------------------|
A#|----------------|----------------------|
F#|----------------|----------------------|
C#|----3~----------|---3~-----------------|
G#|----3~----------|---3~-----------------|
D#|----3~----------|---3~-----------------|
3.
D#|----------------|----------------------|
A#|----------------|----------------------|
F#|----------------|----------------------|
C#|----7~----------|---7~-----------------|
G#|----7~----------|---7~-----------------|
D#|----7~----------|---7~-----------------|
4.
D#|----------------|----------------------|
A#|----------------|----------------------|
F#|----------------|----------------------|
C#|----3~----------|-3-3~-----------------|
G#|----3~----------|-3-3~-----------------|
D#|----3~----------|-3-3~-----------------|

  GtrII
D#|-15-------15--------15-----|--15-------15--------15-----|
A#|---15--------15------------|-----15-------15------------|
F#|-----17--------17------17--|--------17-------17------17-|
C#|---------------------------|----------------------------|cont(optional)
G#|---------------------------|----------------------------|
D#|---------------------------|----------------------------|

  end Am
D#|----------------|
A#|----------------|
F#|-----7~---------|
C#|-----7~---------|
G#|-----x----------|
D#|-----7~---------|

When the fighting is over
Coz our mouths have just run dry
As our feelings get colder
There’s nothing to hold us now
Gave all this time just to be let down
Can you explain to me?
What has become of us?
With words released
We can never take them back
Not even pleading can save us
I know you’ll meet someone better
But would still think of me
If he can’t hold you like I did
Would you run back to me?
I know this pain shall pass
Gave all this time still we couldn’t last
Explain to me
What has become of us?
With words released
We can never take them back
For all that were worth now
Not even pleading can save us
How did we end this way?
Our promises thrown away
All the years we built, broken up
See it crashing down
I have to say
Though alone in this crazy sea of faces
It’s still your face I wanna know
Explain to me
What has become of us?
With words released
We can never take them back
For all that were worth now
Not even pleading can save us
Can’t save us now
The fighting is over
The fighting is over
The fighting is over
The fighting is over now



************************************

| x  Dead note
| h  Hammer-on
| >  Accented note
| /  Slide up
| \  Slide down
| ~  Vibrato
| s  slide

************************************

            
            
Suggest correction
Creating personal tab
Creating personal tab
You can edit any tab online and save it as your Personal.

You can edit, replace or remove any tab part or add personal notes – all changes will be seen only by you.

Personal tabs can be accessed anytime from any device, even offline.
Learn more »
comments
print report bad tab
guest
You may want to rate the tab now too:
select rating
Wanna post a correction for this tab? Suggest correction