Oops, an error
Loading. Please wait.

Under Crisis tab

1,659 views 1 this week
no commentswrite comment
1 2 3 4 5
2 more votes to show rating
add to favorites
×
Save as Personal and add changes to this tab that will be seen only by you. Learn more ›
×
You can save this tab as Personal to edit and correct it or add notes. All changes will be seen only by you. Learn more »
launch autoscroll
font size
0
reset
how to read this tab
guitar tuner
edit
Autoscroll
slow
fast
+/-
esc
set tempo
stop
Author
Under Crisis by Urban Dub
Standard Tuning
tabbed by wasted_1ne@yahoo.com


i dedicate this tab to my best pals: jozen, nacky, christine c., abie dr
                                     arlyn, zenadie and nely. you guys
                                     rock my world!!! \m/(+_o)\m/


and to you peepz out there....sorry kung hindi ko nilagay yung lyrics.
makining na lang kau sa cd para ma-gets niyo ito okeiz? aheheheheh....
i hope you enjoy this!!!! have fun!!!!   =)

Intro:

----------------------------------------------------|
8-10p8-8-10p8-8-------------------------------------|
----------------------------------------------------|
----------------------------------------------------|       8x
----------------------------------------------------|
----------------------------------------------------|


----------------------------------------------------|
----------------------------------------------------|
----------------------------------------------------|
----------------------------------------------------|        2x
10------------10------------------------------------|
---10-8-8-8-----10-8-10s12--------------------------|


----------------------------------------------------|
----------------------------------------------------|
----------------------------------------------------|  listen carefully sa CD
9-9-9-9-9-9-9-10-10-10-10-10-10-10------------------|  sa part na to... ;)
----------------------------------------------------|
----------------------------------------------------|


Verse I

----------------------------------------------------|
----------------------------------------------------|
----------------------------------------------------|
----------------------------------------------------|           2x
10-10p8-10s12-12-12-12-12---------------------------|
----------------------------------------------------|


----------------------------------------------------|
----------------------------------------------------|
----------------------------------------------------|
----------------------------------------------------|           2x
14-14p12-14s15-15-15-15-15--------------------------|
----------------------------------------------------|


(makining ka rin sa CD sa part na ito, mahirap kasi I-tab eh...aheheheheheh...)


-----------------------------------------------------|
-----------------------------------------------------|
-----------------------------------------------------|
10-10-10-10-9-9-9-9-10-10-10-10-10-10-10-10----------|(3x)
-----------------------------------------------------|
-----------------------------------------------------|


----------------------------------------------------|
----------------------------------------------------|
----------------------------------------------------|
----9-9-9-9-10-10-10-10-----------------------------|
----------------------------------------------------|
----------------------------------------------------|


----------------------------------------------------|
----------------------------------------------------|
-------------------------------12-10-9-10s3---------|
8-8-8-8-8-8-8-8-8-8-8-8-----------------------------|
8-8-8-8-8-8-8-8-8-8-8-8-----------------------------|
6-6-6-6-6-6-6-6-6-6-6-6-----------------------------|


Chorus

------------------------------------------------------------------|
------------------------------------------------------------------|
------------------------------------------------------------------|
3-3-3-3-3-3-3-3-3-3-3-3-3-3-3-3/7-7-7-7-7-7-7-7-7-----------------|     2x
3-3-3-3-3-3-3-3-3-3-3-3-3-3-3-3/7-7-7-7-7-7-7-7-7--5-7-5-5s3-3-3--|
1-1-1-1-1-1-1-1-1-1-1-1-1-1-1-1/5-5-5-5-5-5-5-5-5-----------------|


I need a savior now....


------------------------------------------------------------------|
------------------------------------------------------------------|
------------------------------------------------------------------|
3-3-3-3-3-3-3-3-3-3-3-3-3-3-3-3/9-9-9-9-9-9-9-9-9--9-10-9-9s7-7-7-|
3-3-3-3-3-3-3-3-3-3-3-3-3-3-3-3/9-9-9-9-9-9-9-9-9-----------------|
1-1-1-1-1-1-1-1-1-1-1-1-1-1-1-1/7-7-7-7-7-7-7-7-7-----------------|


I need a savior now....


--------------------------------------------------------------|
--------------------------------------------------------------|
--------------------------------------------------------------|
3-3-3-3-3-3-3-3-3-3-3-3-3-3-3-3/7-7-7-7-7-7-7-7-7-------------|
3-3-3-3-3-3-3-3-3-3-3-3-3-3-3-3/7-7-7-7-7-7-7-7-7-------------|
1-1-1-1-1-1-1-1-1-1-1-1-1-1-1-1/5-5-5-5-5-5-5-5-5-------------|


Verse II

----------------------------------------------------|
----------------------------------------------------|
----------------------------------------------------|
----------------------------------------------------|           2x
10-10p8-10s12-12-12-12-12---------------------------|
----------------------------------------------------|


----------------------------------------------------|
----------------------------------------------------|
----------------------------------------------------|
----------------------------------------------------|           2x
14-14p12-14s15-15-15-15-15--------------------------|
----------------------------------------------------|


----------------------------------------------------|
----------------------------------------------------|
----------------------------------------------------| just listen to the CD
10-10-10-10-9-9-9-9-10-10-10-10-10-10-10-10---------| to get it right at this
----------------------------------------------------| part too...  =)
----------------------------------------------------|


Adlib


-----------------------------------------------------------------------|
-----------------------------------------------------------------------|
-----------------------------------------------------------------------|
3-3-3-3-3-3-3-3/5-5-5-5-5-5-5-5/7-7-7-7-7-7-7-7-7-7-7-7-7-7-7-7--------|
3-3-3-3-3-3-3-3/5-5-5-5-5-5-5-5/7-7-7-7-7-7-7-7-7-7-7-7-7-7-7-7--------|
1-1-1-1-1-1-1-1/3-3-3-3-3-3-3-3/5-5-5-5-5-5-5-5-5-5-5-5-5-5-5-5--------|


Oooooohh.....ooooohhh....


-----------------------------------------------------|
-----------------------------------------------------|
-----------------------------------------------------|
-----------------------------------------------------|
--8-8-7-8s10-10s12-12-12-12-12-12-12-----------------|
8----------------------------------------------------|


I'm tired, I'm tired of falling down...


----------------------------------------------------|
----------------------------------------------------|
----------------------------------------------------|
-------------------8-8-8-8-8-8-8-8-8-8-8-8----------|
-----8-8-7-8s10-7--8-8-8-8-8-8-8-8-8-8-8-8----------|
---8---------------6-6-6-6-6-6-6-6-6-6-6-6----------|


I'm tired, I'm tired! ...


-----------------------------------------------------|
-----------------------------------------------------|
12-10-9-10s3-----------------------------------------|
-----------------------------------------------------|
-----------------------------------------------------|
-----------------------------------------------------|


Outro:

-------------------------------------------------------------|
-------------------------------------------------------------|
-------------------------------------------------------------|
-------------------------------------------------------------|  2x
10-----------10--------------10----------10------------------|
---10-8-8-8---10-8-10s12---10-8-8-8---10-8h10p8--------------|

-------------------------------------------------------------|
-------------------------------------------------------------|
-------------------------------------------------------------|
-------------------------------------------------------------|
-------------------------------------------------------------|
10-10p8-10s12-12-12-12-12-14-14p12-14s15-15-15-15-15---------|

            
            
Suggest correction
Creating personal tab
Creating personal tab
You can edit any tab online and save it as your Personal.

You can edit, replace or remove any tab part or add personal notes – all changes will be seen only by you.

Personal tabs can be accessed anytime from any device, even offline.
Learn more »
Give kudos to tab author, rate the tab!
1 2 3 4 5
comments
print report bad tab
guest
You may want to rate the tab now too:
select rating
Wanna post a correction for this tab? Suggest correction