Oops, an error
Loading. Please wait.

These Demons In Me tab

28 views 1 this week
no commentswrite comment
1 2 3 4 5
3 more votes to show rating
add to favorites
×
Save as Personal and add changes to this tab that will be seen only by you. Learn more ›
×
You can save this tab as Personal to edit and correct it or add notes. All changes will be seen only by you. Learn more »
launch autoscroll
font size
0
reset
how to read this tab
guitar tuner
edit
Autoscroll
slow
fast
+/-
esc
set tempo
stop
Author
Difficulty
-------------------------------------------------------------------------------
                             SONG NAME - Band Name
-------------------------------------------------------------------------------
Tabbed by: Chris Bjornn
E-mail: usthievesmusic@gmail.com

Tuning: Standard

e|------------------------------------------------------7---2-2----0---3-3----------------------------|
B|--8----3-3----1---0-0----------------1-1--1-1--0------8---3-3----1---0-0--------------1-1--1-1--0---|
G|--9----4-4----0---0-0----0---2-2-----0-0--0-0--0------9---4-4----0---0-0----0---2-2---0-0--0-0--0---|
D|--9----4-4----2---0-0----2---0-0-----2-2--2-2--0------9---4-4----2---0-0----2---0-0---3-2--2-2--0---|
A|0h7----2-2--0h3---2-2--0h2---0-0-----3-3--2-2--2----0h7---2-2--0h3---2-2--0h2---0-0---3-3--2-2--2---|
E|------------------3-3----0---2-2---------------3---------------------3-3----0---2-2-------------3---|

             Oh won't your pour me a drink oh I need to get rid of these demons in me
e|----------------------------------------------------------------------------------1-----------------|
B|--8----3------------------1--------0------------------------------------1---------0-----------------|
G|--9----4------------------0--------0-----------0-----------2------------0---------0-----------------|
D|--9----4------------------2--------0-----------2-----------0------------2---------0-----------------|
A|0h7----2----------------0h3--------2---------0h2-----------0------------3---------2-----------------|
E|-----------------------------------3-----------0-----------2----------------------3-----------------|
             Oh won't you give me a cure for this endless, tremendous torment I endure
e|--7----2--------------------------------------------------------------------------1-----------------|
B|--8----3------------------1--------0------------------------------------1---------0-----------------|
G|--9----4------------------0--------0-------------0-----------2----------0---------0-----------------|
D|--9----4------------------2--------0-------------2-----------0----------2---------0-----------------|
A|0h7----2----------------0h3--------2-----------0h2-----------0----------3---------2-----------------|
E|-----------------------------------3-------------0-----------2--------------------3-----------------|

Repeats pattern...


       
    I      get much better with age like wine, I get much better with age like
e|---------------------------------------------------------------------------|
B|---------------------------------------------------------------------------|
G|--4------------------------------------4----------------0------------------|
D|--4---------------4--------------------4----------------0------------------|
A|--2---------------4--------------------2----------------0------------------|
E|------------------2-------------------------------------2------------------|


   wine,        I get much better with age, I get much better with age, I get much better with age
e|---7----2-----------------------------1-------------------------------------------------------3------|
B|---8----3-----------------1-----------0------------------------------------------1------------0------|
G|---9----4-----------------0-----------0---------------0-----------2--------------0------------0------|
D|---9----4-----------------2-----------0---------------2-----------0--------------2------------0------|
A|-0h7----2-----------------3-----------2---------------2-----------0--------------3------------2------|
E|--------------------------------------3---------------0-----------2---------------------------3------|

          Why didn't you come for me? At least comfort me? I'm so uneasy you see
e|-----------------------1----------------------2-----------------------------------|
B|--1--------------------0----------------------3-----------------------------1-----|
G|--0--------------------0----------------------2------------------0---2------0-----|
D|--2--------------------0-----------------------------------------2---0------2-----|
A|--3--------------------2-----------------------------------------2---0------3-----|
E|--3--------------------3-----------------------------------------0---2------3-----|


           I may be a thief but I'm your God damn friend, that's how this story will end
e|--------------------1---------------------------2----------------------------------------------------|
B|--------------------0---------------------------3---------------------------------------------------|
G|--------------------0---------------------------2------------------------------------0--------------|
D|--------------------0----------------------------------------------------------------2-------------|
A|--------------------2----------------------------------------------------------------2-------------|
E|--------------------3----------------------------------------------------------------0-------------|


   that's how this story will end (then repeats intro)
e|------------------------------8---------------------------------------------|
B|------------------1----1------7-----------------------------------------------|
G|------------------0----0------9-----------------------------------------------|
D|------------------2----2------9-----------------------------------------------|
A|------------------3----2----0h7-------------------------------------------------|
E|---------------------------------------------------------------------------|

   
************************************

| /   slide up
| \   slide down
| h   hammer-on
| p   pull-off
| ~   vibrato
| +   harmonic
| x   Mute note
| b   Bend
| pb  Pre-bend
| br  Bend release
| pbr Pre-bend release
| brb Bend release bend

************************************

            
            
Suggest correction
Creating personal tab
Creating personal tab
You can edit any tab online and save it as your Personal.

You can edit, replace or remove any tab part or add personal notes – all changes will be seen only by you.

Personal tabs can be accessed anytime from any device, even offline.
Learn more »
Give kudos to tab author, rate the tab!
1 2 3 4 5
comments
print report bad tab
guest
You may want to rate the tab now too:
select rating
Wanna post a correction for this tab? Suggest correction