Oops, an error
Loading. Please wait.

Antes De Los Viejos Reyes bass

by V8
154 views 12 this week
no commentswrite comment
1 2 3 4 5
3 more votes to show rating
add to favorites
×
Save as Personal and add changes to this tab that will be seen only by you. Learn more ›
×
You can save this tab as Personal to edit and correct it or add notes. All changes will be seen only by you. Learn more »
launch autoscroll
font size
0
reset
guitar tuner
edit
Autoscroll
slow
fast
+/-
esc
set tempo
stop
                                             \
G|-----------------------------------------  |
D|-----------------------------------------  |
A|-5--5-5-5--8--8-8-8----------------------  |
E|---------------------6--6-6-6--3--3-3-3--  |
                                             | Parte
G|----------------------------------------|  |   A
D|----------------------------7--5--5--7--|  |
A|-5--5-5-5--8--8-8-8--6--6---------------|  |
E|----------------------------------------|  |
                                             /

Repite parte A. Despues:

?Seres dañados sujetos al mal mutilaron a?    \
G|------------------------------------------  |
D|------------------------------------------  |
A|-5-5-5-5-5-5-5-5-5-5--8-8-8-8-8-8-8-8-8-8-  |
E|------------------------------------------  |
                                              | Parte
?cambiar, renovar o tan solo reír?            |   B
G|--------------------------------------|     |
D|-----------------------------------3--|     |
A|-1-1-1-1--3-3-3-3--5-5-5-5-5-3-3-3----|     |
E|--------------------------------------|     |
                                              /

Repite parte B. Despues:

?rompe tus horas pensando antes que los viejos reyes?                  \
G|--------------------------------------------------------------       |
D|-----5---5--5----7---7-------------------------------------3--       |
A|---------------------------1--1--1--1--1--1--3--3--3--3|3|3---       |
E|-3--3-3--------5---5---5--------------------------------------       |Parte
                                                                       |  C
?entonen un falso himno de amor y su resplandor queme almas inocentes? |
G|------------------------------------3|3|3|3|3|3--------5-3-------    |
D|-----5---5--5----7---7-------------------------------------5-3---    |
A|---------------------------1--1--1-------------3--3--3-----------    |
E|-3--3-3--------5---5---5-----------------------------------------    |
                                                                       /

Repite parte A (2 vueltas), B (2 vueltas), C, A (1 vuelta). Despues:

G|------------------------------------------------------------
D|------------------------------------------------------------
A|-5--5-5-5--8--8-8-8----------------------5--5-5-5--8--8-8-8-
E|---------------------6--6-6-6--3--3-3-3---------------------

?queme almas inocentes?
G|------------------------------------------------14--14-------
D|-------------------------------------------------------------
A|----------------------------------------------12--12---------
E|-6--5--3--6--5--3--5--5--5--5--5--5--9--9--9-----------------

(durante el solo de guitarra)
G|---------------------------------------------------------------14--14-
D|----------------------------------------------------------------------
A|-5--5--5----------3--3--3----------1--1-1-1-1-1--1---0--0----12--12---
E|----------3--3-------------1--1---------------------------------------

G|-----7-7-7--------------------------------------------------------------
D|------------------------------------------------------------------------
A|-5----------------3--3--3----------1--1-1-1-1-1--1---0--0----4-4-4-4-4-4
E|----------3--3-------------1--1---1-------------------------------------

G|------------------------------------------------3-3|3-------------14\--
D|--------------5|3------3|1--------3|1----------------------------------
A|-5--5--5---------5|3--3---3----3-----1--1--1--1------0---0---12~-------
E|----------3--3-------------1--1----------------------------------------

G|-----7-7-7-----------------------------------3--3|3|3|3---------------------
D|--------------5|3------3|1--------3|1----------------------------6|6|6|6|6|6
A|-5--5------------5|3--3---3----3-----1--1--1-----------0--0|0-0-------------
E|----------3--3-------------1--1---------------------------------------------

G|----------14|14|14|14|14|14
D|---------------------------
A|---------------------------
E|-9--9--9-------------------

     ?no meditamos?             ?la eternidad
G|----------------------------------------------------
D|----------------------3---------------------------3-
A|-5-5-5-5-5-5-5-5-5-3-----3--1-1-1-1-1-1-1-1-1--3----
E|----------------------------------------------------

     ?pues la ocultan?      ?nuestros dueños?
G|-----------------------------------------------------
D|------------------------------------------------3----
A|-3-3-3-3-3-3-3-3-3-3-0--3--5-5-5-5-5-5-5-5-5-3-----3-
E|-----------------------------------------------------

     ?quienes quemaron?         ?la identidad
G|----------------------------------------------------
D|----------------------3---------------------------3-
A|-5-5-5-5-5-5-5-5-5-3-----3--1-1-1-1-1-1-1-1-1--3----
E|----------------------------------------------------

     ?de nuestras almas con su fuego
G|---------------------------------------------5h7-7|7|7--5h7-7|7-5h-7|7
D|----------------------------------------------------------------------
A|-3-3-3-3-3-3-3-3-3-3-0--3--5-5-5-5-5-5-5-5-5--------------------------
E|----------------------------------------------------------------------

?rompe tus horas pensando antes que los viejos reyes?
G|---------------------------------3-3-3---------------
D|-----5--------------------------------------------3--
A|---------------------------1-1-1-------3-3-3-3|3|3---
E|-3--3-3--3--3--5-5-5-5-5-5---------------------------

?entonen un falso himno de amor y su resplandor queme almas inocentes?
G|------------------------------------------------3|3|3|3|3|3
D|---5--------5----------------------------------------------
A|-----------------------------1-1-1-1-1-1--3-3-3------------
E|-3---3---3-----5-5-5--5-5-5--------------------------------

Repite parte A. Despues:

G|-----------------------------------------------------------------------------
D|-----------------------------------------------------------------------------
A|-5-5-5-4-4-4-5-5-5-------------------------------------1-1-1-0-0-0-4-4-4-5---
E|-------------------5-5-5-6-6-6-3-3-3-5-5-5-1-1-1-3-3-3-----------------------

El original de este tema esta un cuarto de semitono mas grave que la afinacion
comun (La 440).

     /: slide up (?arrastrar? hacia adelante)
     \: slide down (?arrastrar hacia atrás)
     h: hammer on (ligado)
 x |x : tocar las dos notas consecutivamente rápido por Ej. 3|3


Antes que los viejos reyes (Iorio-Zamarbide-Roldan-Cenci)

Seres dañados sujetos al mal,
mutilaron a quien quiso amar
cambiar, renovar o tan solo reír,
con falsas historias quisieron callar
las almas que en la inmensidad del mar,
ahogaron el grito que desvaneció su existir.

Rompe tus horas pensando
antes que los viejos reyes
entonen un falso himno de amor
y su resplandor queme almas inocentes.

Sé un ejemplo de tu pensar,
brinda tu tiempo a quienes vendrán,
pues es alta la torre a destruir,
y con la base de dar y querer
será mas fácil comprender
la forma de zafar del fin.

Rompe tus horas pensando
antes que los viejos reyes
entonen un falso himno de amor
y su resplandor queme almas inocentes.

No meditamos la eternidad
pues la ocultan nuestros dueños,
quienes quemaron la identidad
de nuestras almas con su fuego

            
            
Suggest correction
Creating personal tab
Creating personal tab
You can edit any tab online and save it as your Personal.

You can edit, replace or remove any tab part or add personal notes – all changes will be seen only by you.

Personal tabs can be accessed anytime from any device, even offline.
Learn more »
Give kudos to tab author, rate the tab!
1 2 3 4 5
comments
print report bad tab
guest
Wanna post a correction for this tab? Suggest correction