Oops, an error
Loading. Please wait.

Antes De Los Viejos Reyes tab

by V8
105 views 1 this week
no commentswrite comment
1 2 3 4 5
3 more votes to show rating
add to favorites
×
Save as Personal and add changes to this tab that will be seen only by you. Learn more ›
×
You can save this tab as Personal to edit and correct it or add notes. All changes will be seen only by you. Learn more »
launch autoscroll
font size
0
reset
how to read this tab
guitar tuner
edit
Autoscroll
slow
fast
+/-
esc
set tempo
stop
INTRO: 
e|--------------------------------------------------------------------|
b|--------------------------------------9-5-7-7/9---------------------|
g|--------------------------------------7-5-5-5/7---------------------|
d|-7----10----------------7----10-------------------------------------|
a|-5-5--8--8---8----5-----5-5--8--8---8-------------/5-3-------3-5~~--|
E|-------------6-6--3-3---------------6------------------6-3-5--------|


D5
Seres dañados sujetos al mal

E5#
mutilaron a quien quiso amar,

A5# C5 D5
cambiar, renovar o tan solo reir,

D5
con falsas historias quisieron callar

E5#
las almas que en la inmensidad del mar,

A5# C5 D5
ahogaron el grito que desvaneció su vivir.

G5 A5 
rompe tus horas pensando

A5# C5
antes que los viejos reyes

G5 A5
entonen un falso himno de amor

A5# C5
y su resplandor queme almas inocentes.

COMO INTRO 

Sé un ejemplo de tu pensar,
brinda tu tiempo a quienes vendrán,
pues es alta la torre a destruir,
y con la base de dar y querer
será más fácil comprender
la forma de zafar del fin.
Rompe tus horas pensando
antes que los viejos reyes
entonen un falso himno de amor
y su resplandor queme almas inocentes.

COMO INTRO

Queme almas inocentes!!!


SOLO GUITARRA
e|--------------------------------------------------------------------------------|
b|--------------------------------------------------------------------------------|
g|------------------------------------------------------2-------------------------|
d|----------------------------------2---2-3-2-3-5-3---5---5--3-2-5--3-2-----------|
a|--8-5-7-8-----10-7-8-10-----5-3-5---5---------------------------------5--3-3/5--|
E|----------6~------------8~------------------------------------------------------|


e|------------------------------------------------------------------------------------------------------|
b|-------------6/(8)-6^5----13/(15)-13-10\9------------------10-----------------10----------------------|
g|-----------------------5------------------12-10---10-12-13----13-12--10-12-13----13-12--10-12-13-12~--|
d|------------------------------------------------------------------------------------------------------|
a|--5-7-7/8-8-------------------------------------------------------------------------------------------|
E|------------------------------------------------------------------------------------------------------|

(delay)
e|--10-12-12/(13)--12/(13)\12^10-----+----------------------------+----------|
B|-------------------------------13--+-10-11-14-----11----10------+----------|
G|-----------------------------------+----------10-----9-----7----+----------|
D|-------------------------------------------------------------8--+--8^10^8--|
A|----------------------------------------------------------------+----------|
E|----------------------------------------------------------------+----------|

(trino)
e|------------------5\-+---------13-10--12-10--13-10^13--------------------|
B|-------------5^4-----+-13/(15)------------------------10-9-8-------------|
G|-------6^5---------------------------------------------------10/(12)\10--|
D|--7^6--------------------------------------------------------------------|
A|-------------------------------------------------------------------------|
E|-------------------------------------------------------------------------|

e|----------17^20^17---------------------------------------------------------------|
B|--20/(22)----------%%%--20/(22)-20/(22)~-----------------------13/(15)-13/(15)~--|
G|-----------------------------------------12/(14)-12/(14)\12^10-------------------|
D|---------------------------------------------------------------------------------|
A|---------------------------------------------------------------------------------|
E|---------------------------------------------------------------------------------|


No meditamos la eternidad
pues la ocultan nuestros dueños,
quienes quemaron la identidad
de nuestras almas con su fuego.

FINAL:
D5 / C# / D5 / A5
A5 / A5#
G5 / A5
F5 / G5
A5# / A5 / C5# / A5

            
            
Suggest correction
Creating personal tab
Creating personal tab
You can edit any tab online and save it as your Personal.

You can edit, replace or remove any tab part or add personal notes – all changes will be seen only by you.

Personal tabs can be accessed anytime from any device, even offline.
Learn more »
Give kudos to tab author, rate the tab!
1 2 3 4 5
comments
print report bad tab
guest
Wanna post a correction for this tab? Suggest correction