Oops, an error
Loading. Please wait.

Lanzado Al Mundo De Hoy tab

by V8
114 views 1 this week
no commentswrite comment
1 2 3 4 5
3 more votes to show rating
add to favorites
×
Save as Personal and add changes to this tab that will be seen only by you. Learn more ›
×
You can save this tab as Personal to edit and correct it or add notes. All changes will be seen only by you. Learn more »
launch autoscroll
font size
0
reset
how to read this tab
guitar tuner
edit
Autoscroll
slow
fast
+/-
esc
set tempo
stop
INTRO (1)
A D5 A5/A5# B5/C5
e|-----------------------------------------+-------------------|X2
b|-----------------------------------------+-------------------|
g|----7------------------------------------+-------------------|
d|----7--767---7-8----------9-10-----------+--7-5--------------|
a|--0-5--------7-8--8-7-8---9-10--10-9-10~-+------8-7--8-7-7/8-|
e|-------------5-6----------7-8------------+-------------------|

Intro (2)
A D5 A5/A5# B5/C5
e|-----------------------------------------+-------------------|
b|-----------------------------------------+-------------------|
g|----7------------------------------------+-------------------|
d|----7--767---7-8--8-7-9---9-10--10-9-10~-+--7-5--------------|
a|--0-5--------7-8----------9-10-----------+------8-7--8-7-7/8-|
e|-------------5-6----------7-8------------+-------------------|

D5 F5/E5/F5 C5
e|-------------------------------------x---------------------------|
b|-------------------------------------x---------------------------|
g|----7--5-----------------------------x--7---------10\9/10--5-5-5-|
d|--7-------8-7-8-8^7-7^5--------------x--7---------10\9/10--5-5-5-|
a|-------------------------8--8-7-5--3-x3/5--5-5-5---8\7/8---3-3-3-|
e|-------------------------------------x---------------------------|

F5/D5 F5/E5/F5 A#/B 
e|--------------------------------|
b|--------------------------------|
g|--10\9\7---------10\9/10---3--4-|
d|--10\9\7---------10\9/10---3--4-|
a|---8\7\5--5-5-5---8\7/8----1--2-|
e|--------------------------------| 

Intro (3):
D5 F5/E5/F5 C5 F5/D5 F5/E5/F5 A#/B 
e|-----------------------------|--------------------------------|
b|-----------------------------|--------------------------------|
g|----7---------10\9/10--5-5-5-|--10\9\7---------10\9/10---3--4-|
d|----7---------10\9/10--5-5-5-|--10\9\7---------10\9/10---3--4-|
a|--3/5--5-5-5---8\7/8---3-3-3-|---8\7\5--5-5-5---8\7/8----1--2-|
e|-----------------------------|--------------------------------|

D5 
YA LA TEMPESTAD,

A5# 
HA REABIERTO MIS HERIDAS

C5 D5
LANZANDOME AL MUNDO HOY...

A5# C5
Y LA REALIDAD DE UNA TIERRA HOSTIL Y FRIA

*1 
ME MUESTRA SU CRUEL VERDAD...

*1
e|---------------|
b|--/10-8-6-8-6~-|
g|---------------|
d|---------------|
a|---------------|
e|---------------|

Como intro (2)

HARTO DE IDEALES QUE PADECEN EN LA IRA
A ESTA ALTURA QUIEN SOY YO
AZOTES DEL MAL SON,QUE ENVIA SATAN
YA DIOS NO LOS CONDUCE HOY...

Como intro (3)
Solo guitarra (1)
Como intro (2)
Solo guitarra (2)

SE ASOMBRAN AUN MAS
ANTE EL SON DEL HEAVY-METAL!!!
PUES NO LOS DEJAN PENSAR
QUE SON HERRAMIENTAS MANEJADAS
POR PERVERSAS MENTES
QUE CONSTRUYEN EL FINAL!

Solo guitarra (1)
e|--------------------------------------+---------------|
b|--------------------------------------+-5-6-3--5-6----|
g|--5/(7)-%-%-%~------------------------+------------3--|
d|----------------0-2-3~--5-3-2--3-2--------------------|
a|-----------------------------------5\-----------------|
e|------------------------------------------------------|

e|---------------------------+---------------------------------------------------|
b|--8/(10)-8--5-6-6^5--------+-5-6-3--5-6------16/(17)-16/(17)\15----------------|
g|--------------------7-5-7~-+------------3~\---------------------17-18-18^17-15-|
d|-------------------------------------------------------------------------------|
a|-------------------------------------------------------------------------------|
e|-------------------------------------------------------------------------------|

            
            
Suggest correction
Creating personal tab
Creating personal tab
You can edit any tab online and save it as your Personal.

You can edit, replace or remove any tab part or add personal notes – all changes will be seen only by you.

Personal tabs can be accessed anytime from any device, even offline.
Learn more »
Give kudos to tab author, rate the tab!
1 2 3 4 5
comments
print report bad tab
guest
Wanna post a correction for this tab? Suggest correction