Oops, an error
Loading. Please wait.

Reina Ciega bass

version 2
version 2

Whole song

by V8
101 views 1 this week
no commentswrite comment
1 2 3 4 5
3 more votes to show rating
add to favorites
×
Save as Personal and add changes to this tab that will be seen only by you. Learn more ›
×
You can save this tab as Personal to edit and correct it or add notes. All changes will be seen only by you. Learn more »
launch autoscroll
font size
0
reset
guitar tuner
edit
Autoscroll
slow
fast
+/-
esc
set tempo
stop
               (2 veces)
G|--------------------------------------|
D|--------------------------------------|
A|-2--2----------5----2-------5-4--0----|
E|------------3------------3------------|

G|-----------------------------------------------------------       \
D|------4---------2--2--2-----------4------------------------       |
A|-2--2---5--5-4------------5--2--2---5---5-4-----5-4--0--0--       |
E|-----------------------3---------------------3-----------3-       | Parte
                                                                    |   A
G|----------------------------------------------------------------  |
D|------4---------2--2--2-----------4---------------------(7)-----  |
A|-2--2---5--5-4------------5--2--2---5---5-4-----5-4--0----------  |
E|-----------------------3---------------------3------------------  |
                                                                    /
           (4 veces)
?Con los pies sobre rotas veredas? ?revolcarse en el barro?
G|------------------------------|-------------------------------
D|------------------------------|------------------------------- Parte
A|-2--2--2--2--2----------0--0--|-2--2--2--2--2-----------------   B
E|-----------------3--3---------|-----------------3--3---5--/12\

          ?matando el cuerpo?                \
G|----------------------------------------   |
D|----------------------------------------   |
A|----------------------------------------   |
E|-5--5|5|2--5--5|5|2--5--5|5|2--5--5|5|2-   |
                                             |
          ?de quien la quiso auxiliar?       |
G|----------------------------------4-4--    |
D|---------------------------------------    |
A|-2--2-2----2--2-2----2--2-2----2-------    |
E|-------2---------2---------2-----------    |
                                             | Parte
            ?y consintiendo a quien?         |   C
G|-------------------------------7--7|7|6-   |
D|--------------------7--7|7|6|4----------   |
A|----------------------------------------   |
E|-5--5-5|2--10--10\----------------------   |
                                             |
?a quien goza con su mal pues no sabe amar?  |
G|---------------------------------          |
D|---------------4--4--4-------2---          |
A|------------------------2|4|5-5|4          |
E|-2--2---2--2---------------------          |
                                             /

Repite parte A, B, C. Despues:

(durante el solo de guitarra)
G|-------------------------------------------------------------
D|----------4--4|4|4|4|5--5|5|5|5|7--7|7-----------------------
A|-2--2-2---------------------------------0|5--5-5-5--5--5-5-5-
E|-------2-----------------------------------------------------

G|-------------------------
D|-2--2-2-2-2-5-4-2--------
A|------------------5-4-3-2
E|-------------------------

G|-------------------------------------------------------------
D|----------4--4|4|4|4|5--5|5|5|5|7--7|7-----------------------
A|-2--2-2---------------------------------0|5--5-5-5--5--5-5-5-
E|-------2-----------------------------------------------------

G|--------------------------------------------
D|-2-2-2-2-2-5-4-4-4-4--5|4|2|4-4-4-------2---
A|-----------------------------------2|4|5-5|4
E|--------------------------------------------

G|--------------------------------------------------------2--------
D|------4---------2--2--2-----------4--------2-4--5--4-2-----------
A|-2--2---5--5-4------------5--2--2---5---5------------------0-5--0
E|-----------------------3-----------------------------------------

G|---------------------------------------------------------------------
D|------4---------2--2--2-----------4-------------5-4------7--7--------
A|-2--2---5--5-4------------5--2--2---5---5-4----------0---------0-7/9\
E|-----------------------3---------------------3-----------------------

Repite parte B, C. Despues:

                       ?darse es amor?              ?darse es?
G|-----------------------------------------------------------
D|------4---------2--2--2-----------4------------------------
A|-2--2---5--5-4------------5--2--2---5---5-4-----5-4--0---5-
E|-----------------------3---------------------3----------0--

?amor?                 ?darse es amor?              ?darse es?
G|------------------------------------------------------------
D|------4---------2--2--2-----------4-------------------------
A|-2--2---5--5-4------------5--2--2-------5-4-----5-4--0------
E|-----------------------3------------3--------3---------0-3-0

?amor?
G|------------------------------------------------------------
D|------4---------2--2--2-----------4-------------------------
A|-2--2---5--5-4------------5--2--2---5---5-4-------5--0----5-
E|-----------------------3---------------------3---0-------0--

G|------------------------------------------------------------
D|------4---------2--2--2-----------4-------------------------
A|-2--2---5--5-4------------5--2--2-------5-4-----5-4--0----5-
E|-----------------------3------------3--------3-----------0--

G|------------------------------------------------------------
D|------4---------2--2--2-----------4-------------------------
A|-2--2---5--5-4------------5--2--2-------5-4-----5-4--0----5-
E|-----------------------3------------3--------3-----------0--

G|----------------------------------
D|------4---------2--2--2-----------
A|-2--2---5--5-4------------5--2--2-
E|-----------------------3----------

El original de este tema esta un cuarto de semitono mas grave que la afinacion
comun (La 440).

       /: slide up (?arrastrar? hacia adelante)
       \: slide down (?arrastrar hacia atrás)
 ( x |x : tocar las dos notas consecutivamente rápido por Ej. 4|5
    (x) : nota opcional

Reina ciega (Iorio-Zamarbide-Roldan-Cenci)

Con los pies sobre rotas veredas
de custodiados barrios,
desperté viendo a la reina ciega,
revolcarse en el barro.

Matando el cuerpo
de quien la quiso auxiliar,
y consintiendo a quien
goza con su mal
pues, no sabe amar
pues, no quiere amar.

Me alejé de la densa esfera
que adormece en su llanto,
para oír de la palabra eterna
comprensión y encanto.

Lenguas de fuego vibran
junto al sembrador,
quien ya está presto
para cosechar amor.

Comprendí que el miedo a la muerte,
solo es para el culpable.
Que sin mas que creerse un cuerpo,
nunca sus manos abre.

Lenguas de fuego vibran
junto al sembrador,
quien ya está presto
para cosechar amor.
Darse es amor.

            
            
Suggest correction
Creating personal tab
Creating personal tab
You can edit any tab online and save it as your Personal.

You can edit, replace or remove any tab part or add personal notes – all changes will be seen only by you.

Personal tabs can be accessed anytime from any device, even offline.
Learn more »
Give kudos to tab author, rate the tab!
1 2 3 4 5
comments
print report bad tab
guest
Wanna post a correction for this tab? Suggest correction