Oops, an error
Loading. Please wait.

Salmo No. 58 chords

by V8
188 views 1 this week
no commentswrite comment
1 2 3 4 5
3 more votes to show rating
add to favorites
×
Save as Personal and add changes to this tab that will be seen only by you. Learn more ›
×
You can save this tab as Personal to edit and correct it or add notes. All changes will be seen only by you. Learn more »
launch autoscroll
font size
0
reset
transpose
0
reset
simplify chords
display chords
guitar tuner
edit
Autoscroll
slow
fast
+/-
esc
set tempo
stop
Strumming
There is no strumming pattern for this song yet. and get +5 IQ
Am       G   F Am     F       G         Am A9 B9 Am G ARREGLO Am A9 B9 Am G
Oh! congregación, pronuncias en verdad justicia?
Am       G   F Am     F       G         Am A9 B9 Am G ARREGLO Am A9 B9 Am G
Juzgáis rectamente, hijos de los hombres?
Am        G         Am        G
No! en el corazón urdís iniquidades.
En la tierra violencia
dispensan vuestras manos.


(2 veces)
G|---------------------------------------|
D|---------------------3--2--------------|
A|-----3-2---2-0------------------0------|
E|-0-1-----3-----------------------------|
   arreglo             F E        A

(2 veces)
G|------------------------------------------|------------
D|------------------------------------------|------------
A|-----3-2---2-3----3---1----1---3----3---1-|-----3-2---2
E|-0-1-----3--------------------------------|-0-1-----3--
  arreglo            C    Bb      C    Bb

(2 veces)
G|---------------------------------------------------|
D|---------------------------------------------------| Parte
A|-0---0--0--0--0--0--3--2--0--0--0--0-------3-2---2-|   A
E|------------------------------------3--0-1-----3---|
  A                   C B  A           arreglo

A                    C           B  ARREGLO
Desde el seno se torcieron los impíos.
A                F          F#         G
Erraron desde el vientre los que hablan mentiras.
A                    C           B  ARREGLO
Envenenados con veneno de serpiente,
A                F          F#         G
son como el áspid que tapa su oído
F       E           D              E
para no oir la voz de los que le encantan,
C              G              E
del mago experto en el encanto.

INTRO

Oh! Dios, rompe sus dientes, en sus bocas quiebra,
Oh!, Dios, las muelas del león.
Que se disipen como agua que corre,
como hierba que se pisa sobre el camino.
D                Bb          D        C
Que se deshagan como el caracol deslíe,
D                Bb          C        C#
como el que muerto nace, y no contempla el sol.


SOBRE EL RECITADO
G|------------------------------------------|------------
D|------------------------------------------|------------
A|-----3-2---2-3--------1--------3--------1-|-----3-2---2
E|-0-1-----3--------------------------------|-0-1-----3--
"
Antes que vuestras ollas sientan la llama
de los espinos,
asi vivos, así airados
El los arrebatará con tempestad."

SOLO DE GUITARRA:
  A                   C B  A          Gm arreglo
G|---------------------------------------------------|
D|---------------------------------------------------| Parte
A|-0---0--0--0--0--0--3--2--0--0--0--0-------3-2---2-|   A
E|------------------------------------3--0-1-----3---|

D                Bb          D        C
D                Bb          C        C#


D                Bb          D        C
Se alegrará el justo al verse vengado,
D                Bb          C        C# (ARREGLO)
sus pies bañará en la sangre del malvado.
D                Bb          D        C
Entonces se dirá: Hay premio para el justo,
G|----------------------------------------------------------------------------
D|----------------------------------------------------------------------------
A|-5---5--5--5-1---1--1--1-3--2-3-4--3-4-5--0-5-7--0-8------------------------
E|-----------------------------------------------------6----6-6-6-6-6-6-6-6-?-
   D           Bb           C BCC#   C C#D  A D E  A F Bb
Hay un Dios que juzga al mundo.

ARREGLO -
G|---------------2|
D|---------------2|
A|--------3-2--2-O|
E|----0-1-----3---|
                 A

            
            
Suggest correction
Creating personal tab
Creating personal tab
You can edit any tab online and save it as your Personal.

You can edit, replace or remove any tab part or add personal notes – all changes will be seen only by you.

Personal tabs can be accessed anytime from any device, even offline.
Learn more »
Give kudos to tab author, rate the tab!
1 2 3 4 5
comments
print report bad tab
guest
Wanna post a correction for this tab? Suggest correction