Oops, an error
Loading. Please wait.

Seven tab

version 1
version 1

Whole song

Interactive

by Vagiant
2,315 views 1 this week
3 commentsread comments
1 2 3 4 5
2 more votes to show rating
add to favorites
×
Save as Personal and add changes to this tab that will be seen only by you. Learn more ›
×
You can save this tab as Personal to edit and correct it or add notes. All changes will be seen only by you. Learn more »
launch autoscroll
font size
0
reset
how to read this tab
guitar tuner
backing track
0:00
0:00
edit
Autoscroll
slow
fast
+/-
esc
set tempo
stop
Author
Difficulty
-------------------------------------------------------------------------------
                             Seven - Vagiant

-------------------------------------------------------------------------------
http://www.vagianttheband.com

Tabbed by:lawj
Email:josh.wall@gmail.com

Tuning: standard eADGBE

Verse:

E|---------------------------------------------------------------------------|
B|---------------------------------------------------------------------------|
G|-------------------9-------------------------------------------------------|
D|-9--------6--------9--------9----------------------------------------------|
A|-9--------6--------7--------9----------------------------------------------|
e|-7--------4-----------------7----------------------------------------------|

Chorus:

E|---------------------------------------------------------------------------|
B|---------------------------------------------------------------------------|
G|-9-9----9-9----9-9----9-9--------------------------------------------------|
D|-9-9----9-9----9-9----9-9------9-------------------------------------------|
A|-7-7----7-7----7-7----7-7------9-------------------------------------------|
e|-------------------------------7-------------------------------------------|

E|---------------------------------------------------------------------------|
B|---------------------------------------------------------------------------|
G|-9-9----9-9----9-9----9-9------11------------------------------------------|
D|-9-9----9-9----9-9----9-9------11------------------------------------------|
A|-7-7----7-7----7-7----7-7------9-------------------------------------------|
e|---------------------------------------------------------------------------|




| /  slide up
| \  slide down
| h  hammer-on
| p  pull-off
| ~  vibrato
| +  harmonic
| x  Mute note
===============================================================================

            
            
Suggest correction
Creating personal tab
Creating personal tab
You can edit any tab online and save it as your Personal.

You can edit, replace or remove any tab part or add personal notes – all changes will be seen only by you.

Personal tabs can be accessed anytime from any device, even offline.
Learn more »
Give kudos to tab author, rate the tab!
1 2 3 4 5
comments
print report bad tab
3 comments total.
0 reply
xxZERO320xx 446 Feb 25, 2008 06:23 PM

vagiant rocks! i figured out the bass to FTK but have'nt got a clue how to tab

0 reply
mathieupM13 169 Feb 27, 2008 01:24 PM

the chorus is wrong and you didn't tab the bridge

0 reply
catfish7 10 Aug 13, 2008 05:17 PM

That chord that ends the verse right before the B5 chord is an F# power chord. Sounds much better.

guest
You may want to rate the tab now too:
select rating
Wanna post a correction for this tab? Suggest correction