Oops, an error
Loading. Please wait.

Lit Up Let Down tab

version 2
version 2

Whole song

70 views 1 this week
1 commentread comment
1 2 3 4 5
3 more votes to show rating
add to favorites
×
Save as Personal and add changes to this tab that will be seen only by you. Learn more ›
×
You can save this tab as Personal to edit and correct it or add notes. All changes will be seen only by you. Learn more »
launch autoscroll
font size
0
reset
how to read this tab
guitar tuner
edit
Autoscroll
slow
fast
+/-
esc
set tempo
stop
Author
Difficulty
Tabbed by: VernalEndymion
Instagram: gingerfish365

Vains Of Jenna- Lit Up Let Down

Tuning: Standard eBGDAE

Noticed this song wasn't tabbed out entirely sooo here's my attempt. Like always, i tried to make it as clear
as possible and added an explanation where i thought was needed. Hope you ladies & gents enjoy the tab and
rock out when you learn it. Please leave a rating and fave if my tab helped you out at all and like always, 
Keep On Rockin! 


Key

.  - palm mute
/  - slide up and down to
b  - Bend
() - Natural harmonics
*  - Pinch harmonics
h  - Hammer
p  - Pull off
"  - Tremolo Picking
x  - Mute
 x   
X^(X)- Strike indicated note, bend half or whole step (as indicated), then release bend back to original note 
without striking again

Intro/Verse 1 Guitar II
e|--------------------------------------------------------|
B|-------3-------------3p0--------------------------3-----|
G|----------0--------0-----0----------0h2p0---0---------0-|
D|----0-------0----0---------0----0h2-------2---------0---|
A|--------------1---------------3-------------------------|
E|-3--------------------------------------------3-3-------|

e|---------------------1--------------------------3-|
B|-------3-----------1---1--------------------------|
G|----------0------0-------0----------0h2p0---0-----|
D|----0-------0-3------------0----0h2-------2-0-----|
A|------------------------------3-------------------|
E|-3------------------------------------------------|

e|--------------------------------------------------------|
B|-------3-------------3p0--------------------------3-----|
G|----------0--------0-----0----------0h2p0---0---------0-|
D|----0-------0----0---------0----0h2-------2---------0---|
A|--------------1---------------3-------------------------|
E|-3--------------------------------------------3-3-------|

e|---------------------1----------------------------------|
B|-------3-----------1---1--------------------0-----3-----|
G|----------0------0-------0----------0h2p0---0-----0---0-|
D|----0-------0-3------------0----0h2-------2---------0---|
A|------------------------------3-------------------------|
E|-3--------------------------------------------3-3-------|

e|--------------------------------------------------------|
B|-------3-------------3p0--------------------------3-----|
G|----------0--------0-----0----------0h2p0---0---------0-|
D|----0-------0----0---------0----0h2-------2---------0---|
A|--------------1---------------3-------------------------|
E|-3--------------------------------------------3-3-------|

e|---------------------1--------------------------|
B|-------3-----------1---1------------------------|
G|----------0------0-------0----------0h2p0---0---|
D|----0-------0-3------------0----0h2-------2-----|
A|------------------------------3-----------------|
E|-3--------------------------------------------\-|

Pre-Chorus Guitar I
e|------|
B|-3--3-|
G|-2--1-|
D|-0--0-|
A|-0--0-|
E|------|

Pre-Chorus Guitar II
e|------|
B|------|
G|-7--7-|
D|-7--6-|
A|-5--5-|
E|------|

Chorus Guitar I
e|------------------3--2----------------0-------------------3--2----------------0-|
B|------------------3--3----------------1-------------------3--3----------------1-|
G|------------------0--2----------------0-------------------0--2----------------0-|
D|-2----------------0--0----------------2--2----------------0--0----------------2-|
A|-2----------------2--0----------------3--2----------------2--0----------------3-|
E|-0----------------3----------------------0----------------3---------------------|

Chorus Guitar II
e|--------------------------------------------------------------------------------|
B|--------------------------------------------------------------------------------|
G|-------------------------7-------7----5--------------------------7-------7----5-|
D|-----2-------2----5----7---7---7---7--5------2-------2----5----7---7---7---7--5-|
A|---2---2---2---2--5--5-------5--------3----2---2---2---2--5--5-------5--------3-|
E|-0-------0--------3----------------------0-------0--------3---------------------|

Verse 2 Guitar II
e|--------------------------------------------------------|
B|-------3-------------3p0--------------------------3-----|
G|----------0--------0-----0----------0h2p0---0---------0-|
D|----0-------0----0---------0----0h2-------2---------0---|
A|--------------1---------------3-------------------------|
E|-3--------------------------------------------3-3-------|

e|---------------------1----------------------------------|
B|-------3-----------1---1--------------------------3-----|
G|----------0------0-------0----------0h2p0---0---------0-|
D|----0-------0-3------------0----0h2-------2---------0---|
A|------------------------------3-------------------------|
E|-3--------------------------------------------3-3-------|

Verse 2 Guitar I 
(This plays while the second part of Verse 2 Guitar II is playing.This sounds like its 
played with a sustain pedal and some reverb and distortion. Just taking a guess)
                1              
e|---------------------------------------|
B|---------------------------------------|
G|-(7)------(7)b^-----(7)-------(7)/(12)-|
D|---------------------------------------|
A|---------------------------------------|
E|---------------------------------------|

Verse II Guitar II (cont.)
e|--------------------------------------------------------|
B|-------3-------------3p0--------------------------3-----|
G|----------0--------0-----0----------0h2p0---0---------0-|
D|----0-------0----0---------0----0h2-------2---------0---|
A|--------------1---------------3-------------------------|
E|-3--------------------------------------------3-3-------|

e|---------------------1--------------------------------|
B|-------3-----------1---1--------------------------3---|
G|----------0------0-------0----------0h2p0---0---------|
D|----0-------0-3------------0----0h2-------2-----------|
A|------------------------------3-----------------------|
E|-3--------------------------------------------3-3---\-|

Pre-Chorus Guitar I
e|------|
B|-3--3-|
G|-2--1-|
D|-0--0-|
A|-0--0-|
E|------|

Pre-Chorus Guitar II
e|------|
B|------|
G|-7--7-|
D|-7--6-|
A|-5--5-|
E|------|

Chorus Guitar I
e|------------------3--2----------------0-------------------3--2----------------0-|
B|------------------3--3----------------1-------------------3--3----------------1-|
G|------------------0--2----------------0-------------------0--2----------------0-|
D|-2----------------0--0----------------2--2----------------0--0----------------2-|
A|-2----------------2--0----------------3--2----------------2--0----------------3-|
E|-0----------------3----------------------0----------------3---------------------|

Chorus Guitar II
e|--------------------------------------------------------------------------------|
B|--------------------------------------------------------------------------------|
G|-------------------------7-------7----5--------------------------7-------7----5-|
D|-----2-------2----5----7---7---7---7--5------2-------2----5----7---7---7---7--5-|
A|---2---2---2---2--5--5-------5--------3----2---2---2---2--5--5-------5--------3-|
E|-0-------0--------3----------------------0-------0--------3---------------------|

Solo Guitar I
(The first chord is played on the build up to the solo. then just play the rest of the chords till the end 
of the solo)
e|----|-----3--2--0-|
B|----|-----3--3--1-|
G|-2--|-----0--2--0-|
D|-2--|--2--0--0--2-|
A|-0--|--2--2--0--3-|
E|----|--0--3-------|

Solo Guitar II
e|-----------------------------------------------------------15----15-17-17b-17b-17-|
B|-----------------------------------------------------15-17----17------------------|
G|-2~--2/4-4--4/6-6--6/7-7--7/9-9/11-11/12-12/14-14/16------------------------------|
D|----------------------------------------------------------------------------------|
A|----------------------------------------------------------------------------------|
E|----------------------------------------------------------------------------------|

e|-----------------------------------------------|
B|-17p15h17b--17-15-17-15--19b-19--17-15-17b--17-|
G|-----------------------------------------------|
D|-----------------------------------------------|
A|-----------------------------------------------|
E|-----------------------------------------------|

e|--------------------------------------------------------------------------------------|
B|---------------------------------15----15--------15-17b-17p15-17b--15-17-15--15-15-15-|
G|-----/11----9-11-12-12/14--14/16----16-----14-16--------------------------------------|
D|---------12---------------------------------------------------------------------------|
A|--------------------------------------------------------------------------------------|
E|-15\----------------------------------------------------------------------------------|

e|------------------------------------|
B|-13-13-13\12------------------------|
G|-------------12/14b(16)(14)-12\11-9-|
D|------------------------------------|
A|------------------------------------|
E|------------------------------------|

Solo II Guitar II 
(This part was really hard to make out but i tried my best. If you listen carefully you can 
hear the notes i tabbed out being played. If you can't, it's completely understandable. Just play Solo II 
Guitar II (cont.) twice. If you look up their acoustic performance, you can hear that part being played and 
it sounds pretty cool too. If someone can figure it out that'd be awesome. Just leave it on the comments and 
you rock!)

e|-0-------3--2----0-----3--2-------------------0-------------|
B|-----3---------3---3------------------1-------------1-------|
G|------------------------------------0---0---0-----0---0---0-|
D|----------------------------------2-------2-----2-------2---|
A|--------------------------------3---------------------------|
E|------------------------------------------------------------|

Solo II Guitar II (cont.)
e|--------------------------------------------------------------------0-------------|
B|---5-7-7/8-7-5------5-7-7/8-7-5---5---5-7-7/8-7-5---0-------1-------------1-------|
G|---------------7----------------7-----------------7-------0---0---0-----0---0---0-|
D|------------------------------------0-------------------2-------2-----2-------2---|
A|------------------------------------------------------3---------------------------|
E|-0----------------3---------------------------------------------------------------|

Solo II Guitar I (These are the chords played near the end of Solo II)
e|------|
B|------|
G|-7--5-|
D|-7--5-|
A|-5--3-|
E|------|

Bridge Guitar I & II
e|------------|
B|------------|
G|-2--4--5--7-|
D|-2--4--5--7-|
A|-0--2--3--5-|
E|------------|

Solo III Guitar II
e|-----3---------3-|
B|-----------0-----|
G|---0-----0-0-----|
D|-2-----2-----2---|
A|-----------------|
E|-----------------|

Solo III Guitar I
e|-----------------|
B|-----------------|
G|-----------------|
D|-X-X-------------|
A|-X-X-------------|
E|-X-X-------------|

Chorus Guitar I
e|------------------3--2----------------0-------------------3--2----------------0-|
B|------------------3--3----------------1-------------------3--3----------------1-|
G|------------------0--2----------------0-------------------0--2----------------0-|
D|-2----------------0--0----------------2--2----------------0--0----------------2-|
A|-2----------------2--0----------------3--2----------------2--0----------------3-|
E|-0----------------3----------------------0----------------3---------------------|

Chorus Guitar II
e|--------------------------------------------------------------------------------|
B|--------------------------------------------------------------------------------|
G|-------------------------7-------7----5--------------------------7-------7----5-|
D|-----2-------2----5----7---7---7---7--5------2-------2----5----7---7---7---7--5-|
A|---2---2---2---2--5--5-------5--------3----2---2---2---2--5--5-------5--------3-|
E|-0-------0--------3----------------------0-------0--------3---------------------|

Solo III Guitar I
e|----3--2--0-|
B|----3--3--1-|
G|----0--2--0-|
D|-2--0--0--2-|
A|-2--2--0--3-|
E|-0--3-------|

Solo III Guitar II
e|---------------------------------------------15-14----15-14----15-14----15-14----15b-15-|
B|-------15-------15-------15-------15-15b-15--------15-------15-------15-------15--------|
G|-11-12----11-12----11-12----11-12-------------------------------------------------------|
D|----------------------------------------------------------------------------------------|
A|----------------------------------------------------------------------------------------|
E|----------------------------------------------------------------------------------------|

                                         1/2
e|-15-14-12-15-14-12-15-14-12-15-14-12-14b^(14)-----------------------------------------------|
B|--------------------------------------------------------15-------15-------15-------15-15b-15|
G|--------------------------------------------------11-12----11-12----11-12----11-12----------|
D|--------------------------------------------------------------------------------------------|
A|--------------------------------------------------------------------------------------------|
E|--------------------------------------------------------------------------------------------|

            1               1        1   
e|--------------------------------12---|
B|-17-15-17b^(17)-15--13-15b^(15)-14b^-|
G|-------------------------------------|
D|-------------------------------------|
A|-------------------------------------|
E|-------------------------------------|

Outro Guitar I
(Seems to be played with a sustain pedal, some reverb, and distortion)
       1/2              
e|--------------------------|
B|-(15)b^----(15)------(12)-|
G|--------------------------|
D|--------------------------|
A|--------------------------|
E|--------------------------|

Outro Guitar II 
e|-----------3-------------------------------------------3-------------------------------------|
B|-------3-----3---3p0---3-2-------3-----3p2-----0---3-----3---3p0---3-2---2-----2-------------|
G|-----0-0-0-----0-----0---0---------0-------0---0-0---0-----0-----0---0-0-----0---------------|
D|-0-2---------------------2---0-2-----2-------2-2---------------------2-----2-----2-0-2-0-----|
A|-----------------------------------------------------------------------------------------2---|
E|-------------------------------------------------------------------------------------------0-|




            
            
Suggest correction
Creating personal tab
Creating personal tab
You can edit any tab online and save it as your Personal.

You can edit, replace or remove any tab part or add personal notes – all changes will be seen only by you.

Personal tabs can be accessed anytime from any device, even offline.
Learn more »
Give kudos to tab author, rate the tab!
1 2 3 4 5
comments
print report bad tab
1 comment total.
0 reply
achris1391 10 Dec 26, 2015 10:03 AM

Great job! lots of help

guest
You may want to rate the tab now too:
select rating
Wanna post a correction for this tab? Suggest correction