Oops, an error
Loading. Please wait.
We have an official A-Punk tab made by UG professional guitarists. Check out the tab »
×
4,067 views 9 this week
no commentswrite comment
1 2 3 4 5
x 3
add to favorites
×
Save as Personal and add changes to this tab that will be seen only by you. Learn more ›
×
You can save this tab as Personal to edit and correct it or add notes. All changes will be seen only by you. Learn more »
launch autoscroll
font size
0
reset
guitar tuner
backing track
0:00
0:00
edit
Autoscroll
slow
fast
+/-
esc
set tempo
stop
Author
Difficulty
A-Punk
Vampire Weekend

Standard Tuning

There are already a few versions of this tab
but i'm almost certain that the lower register 
part is played more than others have suggested,
not in anyway saying that they are wrong this
is simply how i think it is played and the way
that i play it.
  
  Intro
G|-------------------|
D|-------------------|
A|-0---------5-5-5-5-|
E|------3------------|

G|-----------------------11--12--11--|
D|-----11-------9----1212--12--12--12|
A|-1212--12-1010--10-----------------|
E|-----------------------------------|

G|--------------------|
D|--------------------|
A|-0000------55555555-|
E|------3333----------|


  Verse
G|-----------------------11--12--11--|
D|-----11-------9----1212--12--12--12|
A|-1212--12-1010--10-----------------| x3
E|-----------------------------------| 

G|--------------------|
D|--------------------|
A|-0000------55555555-| x2
E|------3333----------|

G|-----------------------11--12--11--|
D|-----11-------9----1212--12--12--12|
A|-1212--12-1010--10-----------------|
E|-----------------------------------|

G|--------------------|
D|--------------------|
A|-0000------55555555-|
E|------3333----------|
 

  Chorus
G|-----------------------------------------------------|
D|-12121212121212121212121212-------12-----12-----12---|
A|-----------------------------10h12--10h12--10h12--12-|
E|-----------------------------------------------------| 

G|------------------------------------------------|
D|-1212121212121212121212121212-12~12~12-12-12-12-|
A|------------------------------------------------|
E|------------------------------------------------|

  
  Bridge
G|-----------------------11--12--11--|
D|-----11-------9----1212--12--12--12|
A|-1212--12-1010--10-----------------|
E|-----------------------------------|

G|----------------------|
D|-----11-------9----12-|
A|-1212--12-1010--10----|
E|----------------------|

  
  Verse
G|-----------------------11--12--11--|
D|-----11-------9----1212--12--12--12|
A|-1212--12-1010--10-----------------|
E|-----------------------------------| 

G|--------------------|
D|--------------------|
A|-0000------55555555-|
E|------3333----------|

G|-----------------------11--12--11--|
D|-----11-------9----1212--12--12--12|
A|-1212--12-1010--10-----------------|
E|-----------------------------------| 

G|--------------------|
D|--------------------|
A|-0000------55555555-|
E|------3333----------|

  
  Chorus 2
G|---------------------------------------------------|
D|-12121212121212121212121212-----12-----12-----12---|
A|---------------------------10h12--10h12--10h12--12-|
E|---------------------------------------------------| 

G|------------------------------------------------|
D|-1212121212121212121212121212-12-12-12-12-12-12-|
A|------------------------------------------------|
E|------------------------------------------------|


  Outro
G|-----------------------11--12--11--|
D|-----11-------9----1212--12--12--12|
A|-1212--12-1010--10-----------------|
E|-----------------------------------|

G|----------------------|
D|-----11-------9----12-|
A|-1212--12-1010--10----|
E|----------------------|

            
            
Suggest correction
Creating personal tab
Creating personal tab
You can edit any tab online and save it as your Personal.

You can edit, replace or remove any tab part or add personal notes – all changes will be seen only by you.

Personal tabs can be accessed anytime from any device, even offline.
Learn more »
Give kudos to tab author, rate the tab!
1 2 3 4 5
comments
print report bad tab
guest
You may want to rate the tab now too:
select rating
Wanna post a correction for this tab? Suggest correction