Oops, an error
Loading. Please wait.
We have an official Bryn tab made by UG professional guitarists. Check out the tab »
×
28,111 views 9 this week
1 commentread comment
1 2 3 4 5
x 11
add to favorites
×
Save as Personal and add changes to this tab that will be seen only by you. Learn more ›
×
You can save this tab as Personal to edit and correct it or add notes. All changes will be seen only by you. Learn more »
launch autoscroll
font size
0
reset
how to read this tab
guitar tuner
edit
Autoscroll
slow
fast
+/-
esc
set tempo
stop
-------------------------------------------------------------------------------
                             Bryn - Vampire Weekend
-------------------------------------------------------------------------------
Tabbed by: Mitchell
Email: mdrobinson0124@yahoo.com

Tuning: Standard


 - There's really only the one main riff played in this song, and then the end part.


Main Riff
                                                                 (repeated)
e|12p9-9----------------------10p7-7-----------------------------------------|
B|------10/8-8-8/10--10--------------8/10-10--10/7---------------------------|
G|-------------------------------------------------7-------------------------|
D|---------------------------------------------------------------------------|
A|---------------------------------------------------------------------------|
E|---------------------------------------------------------------------------|

   End Riff
e|12(ring)---15(ring)-----17(ring)--17(ring/tremelo pick--------------------|
B|---------------------------------------------------------------------------|
G|---------------------------------------------------------------------------|
D|---------------------------------------------------------------------------|
A|---------------------------------------------------------------------------|
E|---------------------------------------------------------------------------|

            
            
Suggest correction
Creating personal tab
Creating personal tab
You can edit any tab online and save it as your Personal.

You can edit, replace or remove any tab part or add personal notes – all changes will be seen only by you.

Personal tabs can be accessed anytime from any device, even offline.
Learn more »
comments
print report bad tab
1 comment total.
+2 reply
SaintChris 123 Jul 16, 2010 09:14 PM

Hey bass players! Wanna give this riff a shot? try this:

G|----------------------------|------------------------|
D|-14p11-11-------------------|-12p9-9-----------------|
A|----------12s10-10-10s12-12-|--------10s12-12-12p9---|
E|----------------------------|----------------------8-|

OR if you wanna play in the same key:

G|-21p18-18--------------------|-19p16-16-------------------|
D|----------19s17-17-17s19-19--|----------17s19-19-19p16----|
A|-----------------------------|-------------------------17-|
E|-----------------------------|----------------------------|

guest
Wanna post a correction for this tab? Suggest correction