Oops, an error
Loading. Please wait.
We have an official Cousins tab made by UG professional guitarists. Check out the tab »
×

Cousins tab

version 3
version 3

Whole song

Interactive

60,741 views 15 this week
7 commentsread comments
1 2 3 4 5
x 23
add to favorites
×
Save as Personal and add changes to this tab that will be seen only by you. Learn more ›
×
You can save this tab as Personal to edit and correct it or add notes. All changes will be seen only by you. Learn more »
launch autoscroll
font size
0
reset
how to read this tab
guitar tuner
backing track
0:00
0:00
edit
Autoscroll
slow
fast
+/-
esc
set tempo
stop
Difficulty
h = Hammer on
p = Pull off
s = Slide
t = Tremolo

Tabbed by DarkFinale.

Intro:

e|-----------------------|--------------------------|
B|----------5------------|----------5-5-5-----------|
G|---1---3--3------------|---1---3--3-3-3-----------|
D|-2---4----4------------|-2---4----4-4-4-----------|
A|-----------------------|--------------------------|
E|-----------------------|--------------------------|

e|-----------------------|--------------------------|
B|----------5------------|----------4---------------|
G|---1---3--3------------|---1---3--4---------------|
D|-2---4----4------------|-2---4----4---------------|
A|-----------------------|--------------------------|
E|-----------------------|--------------------------|

Drums enter:

e|-----------------------|--------------------------|
B|----------5------------|----------5-5-5-----------|
G|---1---3--3------------|---1---3--3-3-3-----------|
D|-2---4----4------------|-2---4----4-4-4-----------|
A|-----------------------|--------------------------|
E|-----------------------|--------------------------|

e|-----------------------|--------------------------|
B|----------5------------|----------4---------------|
G|---1---3--3------------|---1---3--4---------------|
D|-2---4----4------------|-2---4----4---------------|
A|-----------------------|--------------------------|
E|-----------------------|--------------------------|

Chanting enters:

e|-----------------------|--------------------------|
B|----------5------------|----------5-5-5-----------|
G|---1---3--3------------|---1---3--3-3-3-----------|
D|-2---4----4------------|-2---4----4-4-4-----------|
A|-----------------------|--------------------------|
E|-----------------------|--------------------------|

e|-----------------------|--------------------------|
B|----------5------------|----------4---------------|
G|---1---3--3------------|---1---3--4---------------|
D|-2---4----4------------|-2---4----4---------------|
A|-----------------------|--------------------------|
E|-----------------------|--------------------------|

e|-----------------------|--------------------------|
B|----------5------------|----------5-5-5-----------|
G|---1---3--3------------|---1---3--3-3-3-----------|
D|-2---4----4------------|-2---4----4-4-4-----------|
A|-----------------------|--------------------------|
E|-----------------------|--------------------------|

e|-----------------------|--------------------------|
B|----------5------------|----------4---------------|
G|---1---3--3------------|---1---3--4---------------|
D|-2---4----4------------|-2---4----4---------------|
A|-----------------------|--------------------------|
E|-----------------------|--------------------------|

Bass and Drums in first two verses:

You found a sweater on the ocean floor
They're gonna find it if you didn’t close the door.
You and this model sit outside the side,
In a house on a street they wouldn’t park on the night.

Dad was a risk taker.
His was a shoe maker.
You greatest hits 2006,
Little list maker.

Caught in the melody,
You wait in the car.
You were born with ten fingers and you're gonna use them all.

Bridge x 2

1st Guitar:


e|----------------------------------------------------------------|
B|---17t--16t--14t-12t-11t-12t 11t 9t 7t 9t 7t-5t-4h5p4h5p4s2-0---|
G|----------------------------------------------------------------|
D|----------------------------------------------------------------|
A|----------------------------------------------------------------|
E|----------------------------------------------------------------|

2nd Guitar:


e|----------------------------------------------------------------|
B|---17t--16t--14t-12t-11t-12t 11t 9t 7t 9t 7t-5t-4h5p4h5p4s2-0---|
G|----------------------------------------------------------------|
D|----------------------------------------------------------------|
A|----------------------------------------------------------------|
E|----------------------------------------------------------------|

Interest in colors
I discover myself
If your art life is gritty you'll be toasting my health
If an interest in culture should be lining the walls
When your birth right is interest you could just accrue it all

          E
Me and my cousins,
                 F#
And you and your cousins
B                B7
Its a line that always running.
          E
Me and my cousins,
             F#
You and your cousins,
B             B7
I can feel it coming.


e|-----------------------|--------------------------|
B|----------5------------|----------5-5-5-----------|
G|---1---3--3------------|---1---3--3-3-3-----------|
D|-2---4----4------------|-2---4----4-4-4-----------|
A|-----------------------|--------------------------|
E|-----------------------|--------------------------|

e|-----------------------|--------------------------|
B|----------5------------|----------4---------------|
G|---1---3--3------------|---1---3--4---------------|
D|-2---4----4------------|-2---4----4---------------|
A|-----------------------|--------------------------|
E|-----------------------|--------------------------|

e|-----------------------|--------------------------|
B|----------5------------|----------5-5-5-----------|
G|---1---3--3------------|---1---3--3-3-3-----------|
D|-2---4----4------------|-2---4----4-4-4-----------|
A|-----------------------|--------------------------|
E|-----------------------|--------------------------|

e|-----------------------|--------------------------|
B|----------5------------|----------4---------------|
G|---1---3--3------------|---1---3--4---------------|
D|-2---4----4------------|-2---4----4---------------|
A|-----------------------|--------------------------|
E|-----------------------|--------------------------|

You can throw your back on the bitter wood,
You can throw your back on the bitter wood,
You can throw your back on the bitter wood,
You can throw your back on the bitter wood.

          E
Me and my cousins,
                 F#
And you and your cousins
B                B7
Its a line that always running.
          E
Me and my cousins,
             F#
You and your cousins,
B             B7
I can feel it coming.

          E
Me and my cousins,
                 F#
And you and your cousins
B                B7
Its a line that always running.
          E
Me and my cousins,
             F#
You and your cousins,
B             B7
I can feel it coming.

Chrous:
e|-----------------------------------------------------------------|
B|-5-----4---5-----4-----------------------------------------------|
G|-3-----4---3-----4-----------------------------------------------|
D|-4-x3--4---4-x3--4-----------------------------------------------|
A|-----------------------------------------------------------------|
E|-----------------------------------------------------------------|

Bridge x 2

1st Guitar:

e|----------------------------------------------------------------|
B|---17t--16t--14t-12t-11t-12t 11t 9t 7t 9t 7t-5t-4h5p4h5p4s2-0---|
G|----------------------------------------------------------------|
D|----------------------------------------------------------------|
A|----------------------------------------------------------------|
E|----------------------------------------------------------------|
2nd Guitar:

e|----------------------------------------------------------------|
B|---17t--16t--14t-12t-11t-12t 11t 9t 7t 9t 7t-5t-4h5p4h5p4s2-0---|
G|----------------------------------------------------------------|
D|----------------------------------------------------------------|
A|----------------------------------------------------------------|
E|----------------------------------------------------------------|

            
            
Suggest correction
Creating personal tab
Creating personal tab
You can edit any tab online and save it as your Personal.

You can edit, replace or remove any tab part or add personal notes – all changes will be seen only by you.

Personal tabs can be accessed anytime from any device, even offline.
Learn more »
comments
print report bad tab
7 comments total. Showing first comments.
+1 reply
c-rob6422 271 May 05, 2010 12:14 PM

The Bridge and Interlude Part goes like this:

E--12t-11t-9t-7t-6t-7t-6t-4t-2t-4t-2t-0t-
B-------------------------------------0/5-4-5-5-4-2-0


This is the outro:
Guitar 1:
E|----==-7--9--|11----9-7-|--6-7---|--4-6-----|--4-6---|
B|-o------------|--11------|--------|-------o--|------5-|
G|-----8-------9|----------|6-----8-|4---------|4-------|
D|-o------------|----------|--------|----------|--------|
A|--------------|----------|--------|-------o--|--------|
E|--------------|----------|--------|----------|--------|

Guitar 2
E|----------0-0-0-0--|
B|---4-4-4--5-5-5-5--|
G|---4-4-4--3-3-3-3--|
D|---4-4-4--4-4-4-4--|
A|-------------------|
E|-------------------|

end on open a string after repeating guitar 2 twice.

taken from guitar world magazine.

0 reply
zombii29 10 Jun 06, 2010 12:58 PM

stupid question but what are the two little circles at the start of the first and end of fourth bar in the outro?

0 reply
Fma1416 175 Jul 08, 2010 09:29 AM

I'm pretty this is how the outro goes, more or less.

E|---7-9---11----9-7----------------------------|
B|----------------------11-12-9---9-11----------|
G|-------9----11--------------------------------|
D|-9-----------------11---------9---------------|
A|----------------------------------------------|
E|----------------------------------------------|

E|---7-9---11----9-7----------------------------|
B|----------------------11-12-9---9-11----------|
G|-------9----11--------------------------------|
D|-9-----------------11---------9------11-9-----|
A|----------------------------------------------|
E|----------------------------------------------|

guest
Wanna post a correction for this tab? Suggest correction