Oops, an error
Loading. Please wait.

Diane Young bass

5,682 views 12 this week
3 commentsread comments
1 2 3 4 5
x 7
add to favorites
×
Save as Personal and add changes to this tab that will be seen only by you. Learn more ›
×
You can save this tab as Personal to edit and correct it or add notes. All changes will be seen only by you. Learn more »
launch autoscroll
font size
0
reset
guitar tuner
edit
Autoscroll
slow
fast
+/-
esc
set tempo
stop
Author
-------------------------------------------------------------------------------
                             SONG NAME - Band Name
-------------------------------------------------------------------------------
Tabbed by: H Cates

Tuning: Standard

                                                                Verse
G|-----------------------------------------------------------------------------|
D|-----------------------------------------------------------------------------|
A|-----------------------------------9999999999999999--------------------------|
E|77777777777777777777777777777777------------------77777777777777777----------|

G|-----------------------------------------------------------------------------|
D|-----------------------------------------------------------------------------|
A|77777777777777779999999999999999---------------------------------------------|
E|-----------------------------------77777777777777777777777777777777----------|


                                                      First Chorus (Half Time)
G|-----------------------------------------------------------------------------|
D|-----------------------------------------------------------------------------|
A|7-----------------7----------------------------------------------------------|
E|------------7--2-----------------7--2--9--7--2------------9--7--2------------|

                                                     Second Chorus (Half Time)
G|-----------------------------------------------------------------------------|
D|-----------------------------------------------------------------------------|
A|7-------------9--7-------------11-----7-------------------------9------------|
E|-----------7-----------------------11----7---2------------9--7---------------|

During both chorus's remember that its half time so don't play the tab fast

Verse x1
First Chorus x1
Verse x2
Break
Verse x1
Second Chorus x1
Verse x1

| /  slide up
| \  slide down
| h  hammer-on
| p  pull-off
| ~  vibrato
| +  harmonic
| x  Mute note
===============================================================================

            
            
Suggest correction
Creating personal tab
Creating personal tab
You can edit any tab online and save it as your Personal.

You can edit, replace or remove any tab part or add personal notes – all changes will be seen only by you.

Personal tabs can be accessed anytime from any device, even offline.
Learn more »
comments
print report bad tab
3 comments total.
0 reply
Q4trader 129 Oct 29, 2013 04:00 PM

verse notes

B Gb B

E Gb B

+1 reply
1funnyguy99 127 Jun 29, 2014 03:16 PM

Lack of accuracy. Clearly wrong.

0 reply
ASAPROACH 166 Apr 04, 2015 08:14 AM

Lack of accuracy. There isn't much accuracy and parts of the song are missing. This is the only tab of the song so it will have to do I guess.

guest
You may want to rate the tab now too:
select rating
Wanna post a correction for this tab? Suggest correction