Oops, an error
Loading. Please wait.

Diplomats Son tab

version 1
version 1

Whole song

Interactive

27,631 views 18 this week
2 commentsread comments
1 2 3 4 5
x 12
add to favorites
×
Save as Personal and add changes to this tab that will be seen only by you. Learn more ›
×
You can save this tab as Personal to edit and correct it or add notes. All changes will be seen only by you. Learn more »
launch autoscroll
font size
0
reset
how to read this tab
guitar tuner
edit
Autoscroll
slow
fast
+/-
esc
set tempo
stop
Author
This is the bass line that runs all the way through the song.

The chords used are F# B C#.
 
E||-----------------------------|-----------------------------|
B||-----------------------------|-----------------------------|
G||---------------------1-------|-----------------------------|
D||-----4-4----4------1------1--|-----3-3----3------3-3----3--|
A||---------------2-2-----------|--4------------4-4-----------|
E||--2--------------------------|-----------------------------|
 
The song slows down near the end and Rostam sings. The chords are B F# C#.
            
E||-------------------------------------------------------|
B||------7-------7--------2--------2--------2----------9--|
G||----8-------8-------3--------3--------3---------10-----|
D||--9-------9------4--------4--------4--------11---------|
A||-------------------------------------------------------|
E||-------------------------------------------------------|
 

            
            
Suggest correction
Creating personal tab
Creating personal tab
You can edit any tab online and save it as your Personal.

You can edit, replace or remove any tab part or add personal notes – all changes will be seen only by you.

Personal tabs can be accessed anytime from any device, even offline.
Learn more »
comments
print report bad tab
2 comments total.
0 reply
dc4awesome 10 Feb 22, 2010 08:32 PM

The chords in the bridge are correct, but I think it's missing some arpeggios.

E||-----------------------------------------------------|
B||------7-------7--------2--------2--------2--------2--|
G||----8-------8-------3--------3--------3--------3-----|
D||--9-------9------4--------4--------4--------4--------|
A||-----------------------------------------------------|
E||-----------------------------------------------------|

E||-----------------------------------------------------|
B||--------9-------9------------------------------------|
G||-----10------10--------------------------------------|
D||--11------11-----------------------------------------|
A||-----------------------------------------------------|
E||-----------------------------------------------------|

0 reply
Kris.Baxter 10 Sep 22, 2012 10:40 PM

i dont know about this

guest
You may want to rate the tab now too:
select rating
Wanna post a correction for this tab? Suggest correction