Oops, an error
Loading. Please wait.
We have an official The Kids Dont Stand A Chance tab made by UG professional guitarists. Check out the tab »
×

The Kids Dont Stand A Chance tab

version 1
version 1

Whole song

Interactive

25,149 views 27 this week
3 commentsread comments
1 2 3 4 5
x 14
add to favorites
×
Save as Personal and add changes to this tab that will be seen only by you. Learn more ›
×
You can save this tab as Personal to edit and correct it or add notes. All changes will be seen only by you. Learn more »
launch autoscroll
font size
0
reset
how to read this tab
guitar tuner
backing track
0:00
0:00
edit
Autoscroll
slow
fast
+/-
esc
set tempo
stop
Author
Difficulty
[Intro]

C Dm F F G C (x2)

          C       Dm      F                   F         G                C
A Devastating Backstroke all the way from France
          C       Dm      F                  F                  G       C
With shiny, shiny cufflinks, a shirtsleeve to enhance

Etc.

and then the part played between verses is as follows:

e|----------------------------------------------------------------------------|
B|-8---6-5-------8---6-5--------------5------5----5-8---6-5-------------------|
G|---------7-5-----------7-5-------5----7--5----------------7-5-----5--4--5---|
D|-----------------------------7--------------------------------7-------------|
A|----------------------------------------------------------------------------|
E|----------------------------------------------------------------------------|

            
            
Suggest correction
Creating personal tab
Creating personal tab
You can edit any tab online and save it as your Personal.

You can edit, replace or remove any tab part or add personal notes – all changes will be seen only by you.

Personal tabs can be accessed anytime from any device, even offline.
Learn more »
comments
print report bad tab
3 comments total.
0 reply
lorem 10 Mar 16, 2008 02:34 PM

Wrong tab, I meant this one

|-0--------------------------------0----------------------------------------|
|---8--6-5---------------------------8--6-5---------------------------------|
|-----------5---------9--7--5--9------------5-------5--4--5-----------------|
|--------------7--7-----------------------------7---------------------------|
|---------------------------------------------------------------------------|
|---------------------------------------------------------------------------|

0 reply
benjidude945 123 Apr 30, 2008 05:00 PM

i think the solo you originally posted sounds better, and the chords sound good

+1 reply
Quintis 10 Nov 10, 2015 04:12 PM

|-0-----------------------------------0-------------------------------------|
|---8--6-5-------------------------------8--6-5-----------------------------|
|-----------7---5---------9--7--5--9------------7---5-------5--4--5---------|
|-----------------7--7--------------------------------7---------------------|
|---------------------------------------------------------------------------|
|---------------------------------------------------------------------------|

I think this is actually more accurate^

guest
You may want to rate the tab now too:
select rating
Wanna post a correction for this tab? Suggest correction