Oops, an error
Loading. Please wait.

Finish What Ya Started tab

version 2
version 2

Whole song

Interactive

7,103 views 18 this week
no commentswrite comment
1 2 3 4 5
2 more votes to show rating
add to favorites
×
Save as Personal and add changes to this tab that will be seen only by you. Learn more ›
×
You can save this tab as Personal to edit and correct it or add notes. All changes will be seen only by you. Learn more »
launch autoscroll
font size
0
reset
how to read this tab
guitar tuner
backing track
0:00
0:00
edit
Autoscroll
slow
fast
+/-
esc
set tempo
stop
Author
Difficulty
Gtr I (E A D G B E) - 'Eddie Van Halan - clean electric'
Gtr II (E A D G B E) - 'Sammy Hagar - acoustic'

Intro
  Q=129
 4/4
  Gtr I
       |-3-|
  Q.   S S S E E E     E   H    +E  e E E
|------------------------|-0----(0)-0---0-|
|------------------------|-0----(0)-3---3-|
|------------2-4---------|----------4---4-|
|------0h2h5-----5b5.5-2-|----------------|
|------------------------|----------------|
|------------------------|----------------|
|
| Gtr II
| W                        W
|------------------------|-0--------------|
|------------------------|-0--------------|
|------------------------|----------------|
|------------------------|----------------|
|------------------------|----------------|
|------------------------|----------------|


        |-3-|
  +Q.   S S S E E E     E   E E     E E     E Q.
|-(0)---------------------|-------------------0-----|
|-(3)---------------------|-0-2b2.5---2b2.5---3-----|
|-(4)---------2-4---------|-0-2b2.5---2b2.5---4-----|
|-------0h2h5-----5b5.5-2-|-------------------------|
|-------------------------|-------------------------|
|-------------------------|-------------------------|
|
| +W                        E Q.            q    Q
|-(0)---------------------|-------------------------|
|-(0)---------------------|-------------------------|
|-------------------------|-------------------------|
|-------------------------|---2-------------2-------|
|-------------------------|---0-------------0-------|
|-------------------------|-------------------------|


       |-3-|                                      |-3-|
  Q  E S S S E E E     E    Q.   e E Q.     +Q.   S S S E E E     E
|-0----------------------|--0----0---0----|-(0)---------------------|
|-3----------------------|--0----3---3----|-(3)---------------------|
|-4----------2-4---------|-------4---4----|-(4)---------2-4---------|
|------0h2h5-----5b5.5-2-|----------------|-------0h2h5-----5b5.5-2-|
|------------------------|----------------|-------------------------|
|------------------------|----------------|-------------------------|
|
|              ~
| Q  E E     E Q       E   +W               +W
|------------------------|----------------|-------------------------|
|------------------------|----------------|-------------------------|
|------------------------|----------------|-------------------------|
|------------------------|----------------|-------------------------|
|------------------------|----------------|-------------------------|
|------0-----3-3-------0-|-(0)------------|-(0)---------------------|


                                                  |-3-|
  E E     E E     E E     E     E   E     E     E S S S E E E     E
|-------------------3b3.5-3b3.5-0-|-3b3.5-3b3.5------------------------|
|-0-2b2.5---2b2.5---2b2.5-2b2.5-0-|-2b2.5-2b2.5------------------------|
|-0-2b2.5---2b2.5-----------------|---------------------2-4------------|
|---------------------------------|---------------0h2h5-----5b5.5-2----|
|---------------------------------|------------------------------------|
|---------------------------------|------------------------------------|
|
| E Q.            q       Q         E     Q.            q   Q
|---------------------------------|------------------------------------|
|---------------------------------|------------------------------------|
|---------------------------------|------------------------------------|
|---2-------------2---------------|-------2-------------2--------------|
|---0-------------0---------------|-------0-------------0--------------|
|---------------------------------|------------------------------------|


                              |-3-|
  E e E E Q      E e    Q   E S S S E E E     E
|-0-0------------0-0-|--------------------------|
|-0-0---3-3b3.5--0-0-|--------------------------|
|-------4-4b4.5------|--------------2-4---------|
|--------------------|--------0h2h5-----5b5.5-2-|
|--------------------|--------------------------|
|--------------------|--------------------------|
|
| W                    +W
|-0------------------|-(0)----------------------|
|-0------------------|-(0)----------------------|
|--------------------|--------------------------|
|--------------------|--------------------------|
|--------------------|--------------------------|
|--------------------|--------------------------|


                                   |-3-|
  E e  E E      E  E E E   +E  e E S S S E E E     E
|------------------0-0-0-|-(0)-0----------------------|
|-0-2----2b2.5-----3-3-3-|-(3)-3----------------------|
|-0-2----2b2.5-----4-4-4-|-(4)-4---------2-4----------|
|------------------------|---------0h2h5-----5b5.5-2--|
|------------------------|----------------------------|
|------------------------|----------------------------|
|
| E Q.         +H          +Q.     E     E Q       E
|------------------------|-------------------------0--|
|------------------------|-------------------------0--|
|------------------------|----------------------------|
|---2----------(2)-------|-(2)------------------------|
|---0----------(0)-------|-(0)------------------------|
|------------------------|---------0-----3-3----------|


   Q   q  Q  E e    E  e E e E E E E   E E  E E E Q.      Q    Q  q  Q
|--0---0--0--0-0-|-----0---0---------|------------0-----|-0-------0--0-------|
|--0---3--3--3-3-|-----3---3---------|-0-2----2---3-----|-3-------3--3b3.5---|
|------4--4--4-4-|-----4---4---2-4-0-|-0-2----2---4-----|-4-------4--4b4.5---|
|----------------|-------------------|------------------|--------------------|
|----------------|-------------------|------------------|--------------------|
|----------------|-------------------|------------------|--------------------|
|
| +W               +W                  E Q.     q    Q    E Q.    q  Q
|-(0)------------|-(0)---------------|------------------|--------------------|
|-(0)------------|-(0)---------------|------------------|--------------------|
|----------------|-------------------|------------------|--------------------|
|----------------|-------------------|---2------2-------|---2-----2----------|
|----------------|-------------------|---0------0-------|---0-----0----------|
|----------------|-------------------|------------------|--------------------|


                              |-3-|
  H      +E  Q.        q    E S S S E E E     E
|-0------(0)-0------|--0------------------------|
|-0------(0)-3------|--3------------------------|
|------------4------|--4------------2-4---------|
|-------------------|---------0h2h5-----5b5.5-2-|
|-------------------|---------------------------|
|-------------------|---------------------------|
|
| E E q   Q     E E   +E  E q       Q   E     E
|-------------------|---------------------------|
|-------------------|---------------------------|
|-------------------|-------------------------0-|
|-0-2-2---2-------0-|-(0)-2-2-------2---------0-|
|-0-2-2---2-------0-|-(0)-2-2-------2-----------|
|-------------------|---------------------------|


                               |-3-|
   E  Q   E E Q.        Q    E S S S Q  Q
|-------------0------|--0---------------0----|
|--0--2---2---3------|--3---------------3----|
|--0--2---2---4------|--4------------2--4----|
|--------------------|---------0h2h5---------|
|--------------------|-----------------------|
|--------------------|-----------------------|
|
| +E  E Q   q    E E   +E  E Q       q  E E
|--------------------|-----------------------|
|--------------------|-----------------------|
|-(0)-2-2---2------0-|-(0)-2-2-------2-------|
|-(0)-2-2---2------0-|-(0)-2-2-------2----0--|
|--------------------|--------------------0--|
|--------------------|-----------------------|


                               |-3-|
   H       +E  E E E    Q    E S S S E E E     E
|--0-------(0)-0-0-0-|---------------------------|
|--0-------(0)-3-3-3-|---------------------------|
|--------------4-4-4-|---------------2-4---------|
|--------------------|---------0h2h5-----5b5.5-2-|
|--------------------|---------------------------|
|--------------------|---------------------------|
|
| +E  E Q   q    E E   +E  Q   E     Q   E     E
|--------------------|---------------------------|
|--------------------|---------------------------|
|--------------------|-------------------------0-|
|-(0)-2-2---2------0-|-(0)-2---2-----2---------0-|
|-(0)---2---2------0-|-(0)-----2-----2-----------|
|--------------------|---------------------------|


   E  E E e E E E E        E     E E     E     q  E     E
|-------------0---3b3.5-|--3b3.5-0-3b3.5-3b3.5-0--3b3.5-3b3.5--||
|--0--2---2---3---2b2.5-|--2b2.5-0-2b2.5-2b2.5-0--2b2.5-2b2.5--||
|--0--2---2---4---------|--------------------------------------||
|-----------------------|--------------------------------------||
|-----------------------|--------------------------------------||
|-----------------------|--------------------------------------||
|
| +E  E Q   q   E E       +E     E Q           q  E     E
|-----------------------|--------------------------------------||
|-----------------0-----|-(0)----------------------------------||
|-(0)-2-2---2-----0-----|-(0)----2-2-----------2---------------||
|-(0)-2-2---2-----0-----|-(0)----2-2-----------2--------0------||
|-----------------------|-------------------------------0------||
|-----------------------|--------------------------------------||


 Verse 1
                                |-3-|
   H       +E  Q.        q    E S S S E E E     E
|--0-------(0)-0------|--0------------------------|
|--0-------(0)-3------|--3------------------------|
|--------------4------|--4------------2-4-------0-|
|---------------------|---------0h2h5-----5b5.5-0-|
|---------------------|---------------------------|
|---------------------|---------------------------|
|
| +E  E Q   q     E E   +E  Q   E     Q   E     E
|---------------------|---------------------------|
|---------------------|---------------------------|
|---------------------|-------------------------0-|
|-(0)-2-2---2-------0-|-(0)-2---2-----2---------0-|
|-(0)---2---2-------0-|-(0)-----2-----2-----------|
|---------------------|---------------------------|


   E  E E E     E Q.       +H       E E E     E
|-----------------0------|-(0)-------------------|
|--0--2---2b2.5---3------|-(3)-------------------|
|--0--2---2b2.5---4------|-(4)------2-4----------|
|------------------------|--------------5b5.5-0--|
|------------------------|-----------------------|
|------------------------|-----------------------|
|
| +E  E Q       q    E E   +E  E Q  q   E     E
|------------------------|-----------------------|
|----------------------0-|-(0)-------------------|
|-(0)-2-2-------2------0-|-(0)-2-2--2------------|
|-(0)-2-2-------2------0-|-(0)-2-2--2---------0--|
|------------------------|--------------------0--|
|------------------------|-----------------------|


                                |---3---|
   H       +E  E Q      q    E  S   S   S  E E E     E
|--0-------(0)-0-----|--0------------------------------|
|--0-------(0)-3-----|--0------------------------------|
|--------------4-----|---------------------2-4-------0-|
|--------------------|---------(0)h(2)h(5)-----5b5.5-0-|
|--------------------|---------------------------------|
|--------------------|---------------------------------|
|
| +E  E Q   q    E E   +E  Q    E          Q   E     E
|--------------------|---------------------------------|
|--------------------|---------------------------------|
|--------------------|-------------------------------0-|
|-(0)-2-2---2------0-|-(0)-2----2----------2---------0-|
|-(0)---2---2------0-|-(0)------2----------2-----------|
|--------------------|---------------------------------|


                                    |---3---|
   E  E E E     E Q.       +E  e E  S   S   S  E E E     E
|-----------------0------|-(0)------------------------------|
|--0--2---2b2.5---3------|-(3)-2----------------------------|
|--0--2---2b2.5---4------|-(4)-2---------------2-4----------|
|------------------------|---------(0)h(2)h(5)-----5b5.5-2--|
|------------------------|----------------------------------|
|------------------------|----------------------------------|
|
| +E  E Q       q    E E   +E  E Q             q   E     E
|------------------------|----------------------------------|
|----------------------0-|-(0)---------------------------4--|
|-(0)-2-2-------2------0-|-(0)-2-2-------------2---------4--|
|-(0)-2-2-------2------0-|-(0)-2-2-------------2---------4--|
|------------------------|-------------------------------2--|
|------------------------|-------------------------3b3.5----|


   ~~~           ~
                               |-3-|
   Q.    e E  E  Q     +E  e E S S S E E E     E
|--------------------|---------------------------|
|--4-----2-------4---|-(4)-2---------------------|
|--4-----2-------4---|-(4)-2---------2-4-------0-|
|--4---------(4)-4---|-(4)-----0h2h5-----5b5.5-0-|
|--------------------|---------------------------|
|--------------------|---------------------------|
|
| +Q   Q   E  Q    E   +Q    Q       E Q       E
|--------------------|---------------------------|
|-(4)--4---4--2----4-|-(4)---4-------4-2-------0-|
|-(4)--4---4--2----4-|-(4)---4-------4-2-------0-|
|-(4)--4---4--2----4-|-(4)---4-------4-2-------0-|
|-(2)--2---2--0----2-|-(2)---2-------2-0---------|
|--------------------|---------------------------|


   ~~~          ~
   Q.     e E E Q     +E  e E E a E E a E E
|-------------------|------------------------|
|--2------------2---|-(2)--------------------|
|--2------0---0-2---|-(2)-0---2--------------|
|--2------0---0-2---|-(2)-0---2-----2--------|
|-------------------|-----------3s4---4s2-0--|
|-------------------|------------------------|
|
| +E  E Q   q   E E   +E  E Q     q     E E
|-------------------|------------------------|
|-(0)-2-2---2-----2-|-(2)-2-2-----2-------5--|
|-(0)-2-2---2-----2-|-(2)-2-2-----2-------6--|
|-(0)-2-2---2-----2-|-(2)-2-2-----2-------6--|
|-------------------|---------------------4--|
|-------------------|------------------------|


   Q.     E E E Q     +E  E E  E  a E E a E E
|-------------------|-------------------------|
|--5------5-----5---|-(5)-5-------------------|
|--6------6-----6---|-(6)-6-------------------|
|--6------6-----6---|-(6)-6-----------2-------|
|--4------4---4-4---|-(4)-4---(2)-3s4---4s2-0-|
|-------------------|-------------------------|
|
| +E  E Q   E E E E   +E  E Q       E E   Q
|-------------------|-------------------------|
|-(5)-5-5---5-4-x-5-|-(5)-5-5-------5-4---5---|
|-(6)-6-6---6-4-x-6-|-(6)-6-6-------6-4---6---|
|-(6)-6-6---6-4-x-6-|-(6)-6-6-------6-4---6---|
|-(4)-4-4---4-4-x-4-|-(4)-4-4-------4-4---4---|
|-------------------|-------------------------|


                             |-3-|
  Q.   E E     E E     E   E S S S E E Q      Q
|------------------------|----------------------------||
|-3--------------------3-|-------------3b3.5--3b3.5---||
|-2--------------------2-|---------2---2b2.5--2b2.5---||
|-0--------------------0-|---0h2h5---5----------------||
|------3-2b2.5-0---------|----------------------------||
|----------------1b1.5---|----------------------------||
|
| H      Q.            E   W
|-2------2-------------2-|----------------------------||
|-3------3-------------3-|----------------------------||
|-2------2-------------2-|----------------------------||
|-0------0-------------0-|----------------------------||
|------------------------|----------------------------||
|------------------------|----------------------------||


 Chorus 1
                         |-3-|
  H    +E  Q.      q   E S S S E E E     E
|-0----(0)-0----|--0-----------------------|
|-0----(0)-3----|--3-----------------------|
|----------4----|--4-----------2-4---------|
|---------------|--------0h2h5-----5b5.5-2-|
|---------------|--------------------------|
|---------------|--------------------------|
|
| W               +W
|-0-------------|-(0)----------------------|
|-0-------------|-(0)----------------------|
|---------------|--------------------------|
|---------------|--------------------------|
|---------------|--------------------------|
|---------------|--------------------------|


                                 |-3-|
  E E  E E     E Q.      +E  E E S S S E E E     E
|----------------0-----|-(0)-0----------------------|
|-0-2----2b2.5---3-----|-(3)-3----------------------|
|-0-2----2b2.5---4-----|-(4)-4---------2-4----------|
|----------------------|---------0h2h5-----5b5.5-2--|
|----------------------|----------------------------|
|----------------------|----------------------------|
|
|                                        ~
| E Q.         q    Q     E  E Q       E Q       E
|----------------------|----------------------------|
|----------------------|----------------------------|
|----------------------|-----2----------------------|
|---2----------2-------|-----2----------------------|
|---0----------0-------|-----0-------------------2--|
|----------------------|---------------3-3-------0--|


            ~~
                          |-3-|
   Q.   E E Q.      q   E S S S E E E     E
|--0----0---0----|--0-----------------------|
|--0----3---3----|--0-----------------------|
|-------4---4----|--------------2-4---------|
|----------------|--------0h2h5-----5b5.5-2-|
|----------------|--------------------------|
|----------------|--------------------------|
|
| +W               +W
|----------------|--------------------------|
|----------------|--------------------------|
|----------------|--------------------------|
|----------------|--------------------------|
|-(2)------------|-(2)----------------------|
|-(0)------------|-(0)----------------------|


                           |-3-|
  E E  E E     E  Q  E   E S S S E E     Q      Q
|--------3b3.5----0--0-|-----------------3b3.5----------||
|-0-2----2b2.5----3--3-|-----------------2b2.5--3b3.5---||
|-0-2----------------4-|---------2--------------4b4.5---||
|----------------------|---0h2h5---5b5.5----------------||
|----------------------|--------------------------------||
|----------------------|--------------------------------||
|
| E Q.         Q.    E   W
|----------------------|--------------------------------||
|--------------2-----2-|--------------------------------||
|---2----------2-----2-|--------------------------------||
|---2----------2-----2-|--------------------------------||
|---0----------0-----0-|--------------------------------||
|----------------------|--------------------------------||


 Verse 2
                           |-3-|
  H    +E  E E E    Q    E S S S E E E     E
|-0----(0)-0-0-0-|---------------------------|
|-0----(0)-3-3-3-|---------------------------|
|----------4-4-4-|---------------2-4---------|
|----------------|---------0h2h5-----5b5.5-2-|
|----------------|---------------------------|
|----------------|---------------------------|
|
| ~
| H     q    E E   +E  E Q       q   E     E
|----------------|---------------------------|
|----------------|---------------------------|
|----------------|-------------------------0-|
|-2-----2------0-|-(0)-2-2-------2---------0-|
|-2-----2------0-|-(0)---2-------2-----------|
|----------------|---------------------------|


                            |-3-|
   E  E Q  Q  Q     +Q.     S S S q  Q
|-------------0---|-(0)-----------------------|
|--0----2--2--3---|-(3)--------------3b3.5----|
|--0--2-2--2--4---|-(4)-----------2--2b2.5----|
|-----------------|---------0h2h5-------------|
|-----------------|---------------------------|
|-----------------|---------------------------|
|
| +E  E Q  q  E E   +E  E Q       q  E     E
|-----------------|---------------------------|
|---------------0-|-(0)-----------------------|
|-(0)-2-2--2----0-|-(0)-2-2-------2-----------|
|-(0)-2-2--2----0-|-(0)-2-2-------2--------0--|
|-----------------|------------------------0--|
|-----------------|---------------------------|


                               |-3-|
   H       +E  E E E   +Q.     S S S E E E     E
|--0-------(0)-0-0-0-|-(0)-----------------------|
|--0-------(0)-3-3-3-|-(3)-----------------------|
|--------------4-4-4-|-(4)-----------2-4---------|
|--------------------|---------0h2h5-----5b5.5-2-|
|--------------------|---------------------------|
|--------------------|---------------------------|
|
| +E  E Q   q    E E   +E  E Q       q   E     E
|--------------------|---------------------------|
|--------------------|---------------------------|
|--------------------|-------------------------0-|
|-(0)-2-2---2------0-|-(0)-2-2-------2---------0-|
|-(0)---2---2------0-|-(0)---2-------2-----------|
|--------------------|---------------------------|


                                |-3-|
   q    q  q      Q     +E  E E S S S E E E     E
|-----------------0---|-(0)-0----------------------|
|--0----2--2b2.5--3---|-(3)-3----------------------|
|--0----2--2b2.5--4---|-(4)-4---------2-4----------|
|---------------------|---------0h2h5-----5b5.5-2--|
|---------------------|----------------------------|
|---------------------|----------------------------|
|
| +E  E Q  q      E E    E  E q       E E E     E
|---------------------|----------------------------|
|-------------------0-|-------------------------4--|
|-(0)-2-2--2--------0-|--0--2-2-------2-0-2-----4--|
|-(0)-2-2--2--------0-|--0--2-2-------2-0-2-----4--|
|---------------------|----------------------------|
|---------------------|----------------------------|


   ~~~            ~
                                |-3-|
   Q.     e E  E  Q     +E  e E S S S E E E     E
|---------------------|---------------------------|
|---------2-------4---|-(4)-2---------------------|
|--4------2-------4---|-(4)-2---------2-4---------|
|--4----------(2)-4---|-(4)-2---0h2h5-----5b5.5-2-|
|---------------------|---------------------------|
|---------------------|---------------------------|
|
| +E  E E E E  E  E E   +E  E Q       E E E     E
|---------------------|---------------------------|
|-(4)-4-4-4-4--2--x-4-|-(4)-4-4-------4-2-x-----2-|
|-(4)-4-4-4-4--2--x-4-|-(4)-4-4-------4-2-x-----2-|
|-(4)-4-4-4-4--2--x-4-|-(4)-4-4-------4-2-x-----2-|
|-------2-2-2--0--x-2-|-(2)-2-2-------2-0-x-----0-|
|---------------------|---------------------------|


   ~~~            ~
   q    E E +Q    Q     +E  e E E a E E a E E
|---------------------|------------------------|
|--2----2---------2---|-(2)--------------------|
|--2----2-0-(0)---2---|-(2)-0------------------|
|--2----2-0-(0)---2---|-(2)-0---------2--------|
|---------------------|---------0-3s4---4s2-0--|
|---------------------|------------------------|
|
| +E  E Q    E  E E E   +E  E Q     E E   E E
|---------------------|------------------------|
|-(2)-2-2----2--0-x-2-|-(2)-2-2-----2-x---2-x--|
|-(2)-2-2----2--0-x-2-|-(2)-2-2-----2-x---2-x--|
|-(2)-2-2----2--0-x-2-|-(2)-2-2-----2-x---2-x--|
|-(0)-0-0----0------0-|-(0)-0-0-----0-x---0-x--|
|---------------------|------------------------|


  Q.     E E  E  Q     +E  e E E E E E  E
|-4--------------4---|-(4)-----------------|
|-5------4-------5---|-(5)-4---4-----------|
|-6------4-------6---|-(6)-4---4-----------|
|-6------4-------6---|-(6)-4---4---2-------|
|-4----------(4)-4---|-(4)-----------2-(0)-|
|--------------------|---------------------|
|
| E  E Q   E  E  E E   +E  E Q   E E Q
|--------------------|---------------------|
|-5--5-5---5--4--x-5-|-(5)-5-5---5-4-5-----|
|-6--6-6---6--4--x-6-|-(6)-6-6---6-4-6-----|
|-6--6-6---6--4--x-6-|-(6)-6-6---6-4-6-----|
|-4--4-4---4--4--x-4-|-(4)-4-4---4-4-4-----|
|--------------------|---------------------|


                             |-3-|
  Q.   E E     E E     E   E S S S E E Q      Q
|------------------------|-------------3b3.5--3b3.5---||
|-3--------------------3-|-------------2b2.5--2b2.5---||
|-2--------------------2-|---------2------------------||
|-0--------------------0-|---0h2h5---5----------------||
|------3-2b2.5-0---------|----------------------------||
|----------------1b1.5---|----------------------------||
|
| H      Q.            E   W
|-2------2-------------2-|----------------------------||
|-3------3-------------3-|----------------------------||
|-2------2-------------2-|----------------------------||
|-0------0-------------0-|----------------------------||
|------------------------|----------------------------||
|------------------------|----------------------------||


 Chorus 2
                         |-3-|
  H    +E  Q  e    Q   E S S S E E E      E
|-0----(0)-0--0-|----------------------------|
|-0----(0)-3--3-|----------------------------|
|----------4--4-|--------------2-4-----------|
|---------------|--------0h2h5-----5b5.5-(2)-|
|---------------|----------------------------|
|---------------|----------------------------|
|
| W               +W
|-0-------------|-(0)------------------------|
|-0-------------|-(0)------------------------|
|---------------|----------------------------|
|---------------|----------------------------|
|---------------|----------------------------|
|---------------|----------------------------|


                            |-3-|
  E E  E E E E E E   +Q   E S S S E E E     E
|------------0---0-|-(0)-----------------------|
|-0-2----2---3---3-|-(3)-----------------------|
|-0-2----2---4---4-|-(4)----------2-4----------|
|------------------|--------0h2h5-----5b5.5-2--|
|------------------|---------------------------|
|------------------|---------------------------|
|
|                                   ~
| E Q.     q   Q      Q   E E     E Q       E
|------------------|---------------------------|
|------------------|---------------------------|
|------------------|---------------------------|
|---2------2-------|---------------------------|
|---0------0-------|------------------------2--|
|------------------|--------0-----3-3-------0--|


                          |-3-|
  H    +E  E E e    Q   E S S S E E E     E
|-0----(0)-0---0-|--------------------------|
|-0----(0)-3---3-|--------------------------|
|----------4---4-|--------------2-4---------|
|----------------|--------0h2h5-----5b5.5-2-|
|----------------|--------------------------|
|----------------|--------------------------|
|
| W                +W
|----------------|--------------------------|
|----------------|--------------------------|
|----------------|--------------------------|
|----------------|--------------------------|
|-2--------------|-(2)----------------------|
|-0--------------|-(0)----------------------|


  E E  E E E E E E   E E E E +H
|------------0-0-0-|-0-0---0-(0)---------||
|-0-2----2---3-3-3-|-3-3---3-(3)---------||
|-0-2----2---4-4-4-|-4-4---4-(4)---------||
|------------------|---------------------||
|------------------|---------------------||
|------------------|---------------------||
|
| E Q.     q   E E   Q   Q    E. S +Q
|------------------|---------------------||
|------------------|---------------------||
|---2------2-----2-|-2---2----2--2-(2)---||
|---2------2-----2-|-2---2----2--2-(2)---||
|---0------0-----0-|-0---0----0--0-(0)---||
|------------------|---------------------||


 Guitar Solo
    E  S S  S  S S  S  S S S S S S S S   S S S S S S S S S S S S S S S S
|-----14------12------11-----9-------7-|-----5-----0-----0-----0-----0---|
|--------------------------------------|---------------------------------|
|-/15------13------11------9-----0h7---|-0h7---0h4---0h9---0h9---0h7---0-|
|--------------------------------------|---------------------------------|
|--------------------------------------|---------------------------------|
|--------------------------------------|---------------------------------|
|
|   E  E    Q          H                 Q.          Q.          Q
|--------------------------------------|-3-----------2-------------------|
|--------------------------------------|-3-----------3-----------2-------|
|--------------------------------------|-0-----------2-----------2-------|
|--------------------------------------|-0-----------0-----------2-------|
|---4--4-------------------------------|-x-----------------------0-------|
|---2--2-------------------------------|-3-------------------------------|


    E  S S  S  S S  S  S S S S S S S S
|-----14------12------11-----9-------7--|
|---------------------------------------|
|-/15------13------11------9-----0h7----|
|---------------------------------------|
|---------------------------------------|
|---------------------------------------|
|
|   E  E    Q          H
|---------------------------------------|
|---------------------------------------|
|---------------------------------------|
|---------------------------------------|
|---4--4--------------------------------|
|---2--2--------------------------------|


  S S S S S S S S S S S S +E  E     E  S S  S  S S  S  S S S S S S S S
|-----7-----5-----7-----------5-|-----14------12------11-----9-------7-|
|-------------------------------|--------------------------------------|
|-0h7---0h7---0h7---------------|-/15------13------11------9-----0h7---|
|-------------------0h4s5-(5)---|--------------------------------------|
|-------------------------------|--------------------------------------|
|-------------------------------|--------------------------------------|
|
| Q.          Q.           Q        E  E    Q          H
|-3-----------2-----------------|--------------------------------------|
|-3-----------3------------2----|--------------------------------------|
|-0-----------2------------2----|--------------------------------------|
|-0-----------0------------2----|--------------------------------------|
|-x------------------------0----|---4--4-------------------------------|
|-3-----------------------------|---2--2-------------------------------|


  S S S S S S S S S S S S S S S S
|-----5-----0-----0-----0-----0-----|
|-----------------------------------|
|-0h7---0h4---0h9---0h9---0h7---0---|
|-----------------------------------|
|-----------------------------------|
|-----------------------------------|
|
| Q.          Q.          Q
|-3-----------2---------------------|
|-3-----------3-----------2---------|
|-0-----------2-----------2---------|
|-0-----------0-----------2---------|
|-x-----------------------0---------|
|-3---------------------------------|


    E  S S  S  S S  S  S S S S S S S S   S S S S S S S S S S S S S S E
|-----14------12------11-----9-------7-|-----7-----5--------------------|
|--------------------------------------|-----------------7-----5-----3/-|
|-/15------13------11------9-----0-7---|-0h7---0h7----------------------|
|--------------------------------------|-------------0h7---0h5---0h4----|
|--------------------------------------|--------------------------------|
|--------------------------------------|--------------------------------|
|
|   E  E    Q          H                 Q.          Q.          Q
|--------------------------------------|-3-----------2------------------|
|--------------------------------------|-3-----------3-----------2------|
|--------------------------------------|-0-----------2-----------2------|
|--------------------------------------|-0-----------0-----------2------|
|---4--4-------------------------------|-x-----------------------0------|
|---2--2-------------------------------|-3------------------------------|


   |-3--|
   S  S S S S  S S  S S  S S  S S  S S S S
|-/7---------------------------------------|
|----10p7---7----7------10-7----7----------|
|---------9---10---10-9------10---10-9-7---|
|----------------------------------------9-|
|------------------------------------------|
|------------------------------------------|
|
|  Q           Q         Q         Q
|------------------------------------------|
|--4-----------4---------4---------4-------|
|--4-----------4---------4---------4-------|
|--4-----------4---------4---------4-------|
|--2-----------2---------2---------2-------|
|------------------------------------------|


                           Out-Chorus
       |-3-|                                      |-3-|
  Q  E S S S E E E     E    H    +E  E Q     Q.   S S S E E E     E
|------------------------||-0----(0)-0----|--0----------------------|
|------------------------||-0----(0)-3----|--3----------------------|
|------------2-4---------||----------4----|--4----------2-4---------|
|-9----0h2h5-----5b5.5-2-||---------------|-------0h2h5-----5b5.5-2-|
|------------------------||---------------|-------------------------|
|------------------------||---------------|-------------------------|
|
| Q  Q       H              W               +W
|------------------------||-0-------------|-(0)---------------------|
|-4----------------------||-0-------------|-(0)---------------------|
|-4----------------------||---------------|-------------------------|
|-4----------------------||---------------|-------------------------|
|-2----------------------||---------------|-------------------------|
|------------------------||---------------|-------------------------|


                                 |-3-|
  E E     E E     E Q.      Q  E S S S E E E     E    q   q  Q.      E
|-------------------0-----|-0----------------------|--0---0--0-------0-|
|-0-2b2.5---2b2.5---3-----|-3----------------------|--0---3--3b3.5---0-|
|-0-2b2.5---2b2.5---4-----|-4----------2-4---------|------4--4b4.5-----|
|-------------------------|------0h2h5-----5b5.5-2-|-------------------|
|-------------------------|------------------------|-------------------|
|-------------------------|------------------------|-------------------|
|
|                                        ~
| E Q.            q    Q    Q  E E     E Q       E   +W
|-------------------------|------------------------|-------------------|
|-------------------------|------------------------|-------------------|
|-------------------------|------------------------|-------------------|
|---2-------------2-------|------------------------|-------------------|
|---0-------------0-------|------------------------|-------------------|
|-------------------------|------0-----3-3-------0-|-(0)---------------|


           |---3---|
   E  E E  S   S   S  E E  E     E
|-----0----------------------------|
|-----0----------------------------|
|---------------------2-4----------|
|---------(0)h(2)h(5)------5b5.5-2-|
|----------------------------------|
|----------------------------------|
|
| +H.                      Q
|----------------------------------|
|----------------------------------|
|----------------------------------|
|----------------------------------|
|----------------------------------|
|-(0)---------------------12\------|


  E E  E E E Q.         S     S S S S s S S E E E  E
|------------3b3.5----|-----------0---0-----0-0-0-(0)-|
|-0-2----2---2b2.5----|-3b3.5p0-0-0---0---0-3-3-3s=5--|
|-0-2----2------------|-2b2.5p0-0---------0-2-2-2s=4--|
|---------------------|-------------------------------|
|---------------------|-------------------------------|
|---------------------|-------------------------------|
|
| E Q.     Q       Q    H                   Q   E  E
|---------------------|-------------------------------|
|---------------------|---------------------8---8--8--|
|---------------------|---------------------9---9--9--|
|---2------2----------|-------------------------------|
|---0------0----------|-------------------------------|
|---------------------|-------------------------------|


                             |---3---|
  E e Q    Q.   E    E  E E  S   S   S  E E E     E   E e  E e E e E S S
|---0------0----0-|-----0---------------------------|------------0-------|
|---0------3----0-|-----0---------------------------|-0-2----2---3-------|
|----------4------|---------------------2-4---------|-0-2----2---4---0h9-|
|-----------------|---------(0)h(2)h(5)-----5b5.5-2-|--------------------|
|-----------------|---------------------------------|--------------------|
|-----------------|---------------------------------|--------------------|
|
| Q   E E +H        +W                                E Q.     q   Q
|-------0-(0)-----|-(0)-----------------------------|--------------------|
|-------0-(0)-----|-(0)-----------------------------|--------------------|
|-----------------|---------------------------------|--------------------|
|-----------------|---------------------------------|---2------2---------|
|-----------------|---------------------------------|---0------0---------|
|-----------------|---------------------------------|--------------------|


                                                           |-3-|
  S S S  S S S S S S S S S S S E    Q  q   Q.   E   +Q   E S S S E E E     E
|-9------7-----4-----2------------|----0---0----0-|-(0)-----------------------|
|---------------------------------|----0---3----3-|-(3)-----------------------|
|---0h7----0h4---0h2---0h2-2p0----|--------4----4-|-(4)----------2-4----------|
|------------------------------2/-|---------------|--------0h2h5-----5b5.5-2--|
|---------------------------------|---------------|---------------------------|
|---------------------------------|---------------|---------------------------|
|
| E   Q.           E   E   Q        Q  E E H        +W
|---------------------------------|------0-0------|-(0)-----------------------|
|---------------------------------|------0-0------|-(0)-----------------------|
|---------------------------------|---------------|---------------------------|
|-----2------------2---0----------|---------------|---------------------------|
|-----0------------0---0----------|---------------|---------------------------|
|---------------------------------|---------------|---------------------------|


            <
  e e e e e e e e    e  e e e e e q     e  e   e  e e e e e
|-----------0-0-0-|--0--0-0-0-0-0-0---|-0-(0)-(0)-------0-0-|
|-0-2---2---3-3-3-|--3--3-3-3-3-3-3---|-0-(0)-(0)-3-3-3-0-0-|
|-0-2---2---4-4-4-|--4--4-4-4-4-4-4---|-----------4-4-4-----|
|-----------------|-------------------|---------------------|
|-----------------|-------------------|---------------------|
|-----------------|-------------------|---------------------|
|
| w                 +e  e e e q   e e   e  e   q    e e e e
|-----------------|-------------------|---------------------|
|-2---------------|-(2)-2-----2---2-2-|---------------------|
|-2---------------|-(2)-2-----2---2-2-|---------------------|
|-2---------------|-(2)-2-----2---2-2-|-0--2---2----2-0---0-|
|-0---------------|-(0)-0---0-0---0-0-|-0--2---2----2-0---0-|
|-----------------|-------------------|---------------------|


   e  e e e e e e e    e  e e e e e e e    e  e e e e e e e
|--0--------0-------|--0--0-0-------0-0-|--0------0-0-----0-|
|--0--3---3-0-3-3-3-|---------3-3-3-----|-----3-3-----3-3---|
|-----4---4---4-4-4-|--2--2-2-2-2-2-2-2-|--2--2-2-2-2-2-2-2-|
|-------------------|-------------------|-------------------|
|-------------------|-------------------|-------------------|
|-------------------|-------------------|-------------------|
|
| +e  e q   e e e e   +e  e q   e e e e   +e  e q   e e e e
|-------------------|-------------------|-------------------|
|-------------------|-----------------0-|-(0)-2-2---2-0-2---|
|-----------------0-|-(0)-2-2---2-0---0-|-(0)-2-2---2-0-2---|
|-(0)-2-2---2-0---0-|-(0)-2-2---2-0---0-|-(0)-2-2---2-0-2-0-|
|-(0)-2-2---2-0-----|-------------------|-----------------0-|
|-------------------|-------------------|-------------------|


  e e e e e e e e    e  q   e e e e e    e  e e e e e q     +e  e e e e e e e
|-0-0-0-------0-0-|--0------0-0-------|--0--0-0-----0-0---|-(0)-0-------0---0--|
|-0-0-0-3-3-3-0-0-|--0--3---0-0-3-3-3-|---------3-3-------|---------3-3---3----|
|-------4-4-4-----|-----4-------4-4-4-|--2--2-2-2-2-2-2---|-(2)-2---2-2-2-2-2--|
|-----------------|-------------------|-------------------|--------------------|
|-----------------|-------------------|-------------------|--------------------|
|-----------------|-------------------|-------------------|--------------------|
|
| e e q   e e e e   +e  e q   e e e e   +e  e q   e e e e   +e  e q   e e e e
|-----------------|-------------------|-------------------|--------------------|
|-----------------|-------------------|-----------------0-|-(0)-2-2---2-0-2----|
|-----------------|-----------------0-|-(0)-2-2---2-0---0-|-(0)-2-2---2-0-2----|
|-0-2-2---2-0---0-|-(0)-2-2---2-0---0-|-(0)-2-2---2-0---0-|-(0)-2-2---2-0-2-0--|
|-0-2-2---2-0---0-|-(0)-2-2---2-0-----|-------------------|-----------------0--|
|-----------------|-------------------|-------------------|--------------------|


                               |-3-|
   e  e e e q.     e    e  e e s s s e e e     e
|--0--0------------0-|-----0---------------------|
|--0--0---3-3------0-|-----0---------------------|
|---------4-4--------|---------------2-4---------|
|--------------------|---------0h2h5-----5b5.5-2-|
|--------------------|---------------------------|
|--------------------|---------------------------|
|
| +e  e q   e  e e e   +e  e q       e e e     e
|--------------------|---------------------------|
|--------------------|---------------------------|
|--------------------|-------------------------0-|
|-(0)-2-2---2--0---0-|-(0)-2-2-------2-0-------0-|
|-(0)-2-2---2--0---0-|-(0)-2-2-------2-0---------|
|--------------------|---------------------------|


   e  e e e e e e e    e  e e e e e e s s
|-------------------|---------------------|
|-----3---3-2-3-2-3-|-----2-2-3-3-2-2-----|
|-----4---4-2-4-2-4-|-----2-2-4-4-2-2-0h1-|
|-------------------|---------------------|
|-------------------|---------------------|
|-------------------|---------------------|
|
| +e  e q   e e e e   +e  e q   e e e e
|-------------------|---------------------|
|-----------------0-|-(0)-2-2---2-0-2-----|
|-(0)-2-2---2-0---0-|-(0)-2-2---2-0-2-----|
|-(0)-2-2---2-0---0-|-(0)-2-2---2-0-2-0---|
|-------------------|-----------------0---|
|-------------------|---------------------|


   q    q  e e e e    e  e e e e e e e
|-------0--0-------|-----0---0-------0-|
|-------0--0-3-3-3-|--3--0---0---3-3-0-|
|------------4-4-4-|--4----------4-4---|
|--2---------------|-------------------|
|------------------|-------------------|
|------------------|-------------------|
|
| +e  e q  e e e e   +e  e q   e e e e
|------------------|-------------------|
|------------------|-------------------|
|------------------|-----------------0-|
|-(0)-2-2--2-0---0-|-(0)-2-2---2-0---0-|
|-(0)-2-2--2-0---0-|-(0)-2-2---2-0-----|
|------------------|-------------------|


                              |-3-|
   q    e e e e e e   +e  e e s s s e e e     e
|--0------0---0-0-0-|-(0)-0----------------------|
|-------------------|----------------------------|
|--2------2---2-2-0-|-(0)-2---------2-4----------|
|-------------------|---------0h2h5-----5b5.5-2--|
|-------------------|----------------------------|
|-------------------|----------------------------|
|
| +e  e q   e e e e   +e  e q       q   e     e
|-------------------|----------------------------|
|-----------------0-|-(0)-2-2-------2------------|
|-(0)-2-2---2-0---0-|-(0)-2-2-------2------------|
|-(0)-2-2---2-0---0-|-(0)-2-2-------2------------|
|-------------------|----------------------------|
|-------------------|-------------------3b3.5-0--|


              ~~
                             |-3-|
   e  e e e e q.       q   e s s s e e e     e
|--0----------0------|-0-----------------------|
|--0--3-3-3---3------|-3-----------------------|
|-----4-4-4---4------|-4-----------2-4---------|
|--------------------|-------0h2h5-----5b5.5-2-|
|--------------------|-------------------------|
|--------------------|-------------------------|
|
| +e  e e e e e  e e   e e e e     e e e     e
|--------------------|-------------------------|
|--------------------|-----------------------2-|
|-----9-9-9-9s7--7-7-|-7s6-6-6-----6s4-4-----2-|
|--------------------|-----------------------2-|
|-----7-7-7-7s5--5-5-|-5s4-4-4-----4s2-2-----0-|
|-(0)----------------|-------------------------|


   e  e e e e q  s s    s  s s s s s s s s s s s e e
|-------------0------|--------------------------------|
|--0--2---2---3------|--5------3-----5-----7-----8s9--|
|--0--2---2---4------|--------------------------------|
|----------------0h6-|-----0h4---0h6---0h7---0h8------|
|--------------------|--------------------------------|
|--------------------|--------------------------------|
|
|                                            ~~
| +e  e q   e q  e     +e    e   q       e   q     e
|--------------------|--------------------------------|
|-(2)-2-2---2-0--2---|-(2)---2---2-------2------------|
|-(2)-2-2---2-0--2---|-(2)---2---2-------2------------|
|-(2)-2-2---2-0--2---|-(2)---2---2-------2------------|
|-(0)-0-0---0-0--0---|-(0)---0---0-------0------------|
|--------------------|-----------------------3-----0--|


   q    q   e e e e   +q   q   q   e e
|-----------0-----0-|-(0)--0---0-----0-|
|-------0---0-3---3-|-(3)--0---0---3-0-|
|-------------4---4-|-(4)----------4---|
|-------------------|------------------|
|-------------------|------------------|
|--0----------------|------------------|
|
| +e  e e e e e e e    e e e e e e e e
|-------------------|------------------|
|-------------------|----------------2-|
|-----9-9-9-9s7-7-7-|--7s6-6-6-6s4-4-2-|
|-------------------|----------------2-|
|-----7-7-7-7s5-5-5-|--5s4-4-4-4s2-2-0-|
|-(0)---------------|------------------|


  +e  e e e e e e s s    s  s s s s s s s s s s s e e
|-(0)-5---0-0---------|-------------------------------|
|-(0)-5-------3-------|--5------3-----2-----3-----2p0-|
|---------2-2-2-------|-------------------------------|
|-----------------0h5-|-----0h4---0h2---0h4---0h2-----|
|---------------------|-------------------------------|
|---------------------|-------------------------------|
|
|                                             ~~
| +e  e q   e q   e     +e    e   q       e   q     e
|---------------------|-------------------------------|
|-(2)-2-2---2-0---2---|-(2)---2---2-------2-----------|
|-(2)-2-2---2-0---2---|-(2)---2---2-------2-----------|
|-(2)-2-2---2-0---2---|-(2)---2---2-------2-----------|
|-(0)-0-0---0-0---0---|-(0)---0---0-------0-----------|
|---------------------|-----------------------3-----0-|


   q    q   e e e e   e e e e e e e e
|-------0---0---0-0-|-0-0-0-0---------|
|-------0---0-3-3-3-|-3-3-3-3---2-2-0-|
|-------------4-4-4-|-4-4-4-4---2-2-0-|
|-------------------|-----------------|
|-------------------|-----------------|
|--0----------------|-----------------|
|
| +e  e e e e e e e   e e e e e e e e
|-------------------|-----------------|
|-------------------|---------------2-|
|-----9-9-9-9s7-7-7-|-7s6-6-6-6s4-4-2-|
|-------------------|---------------2-|
|-----7-7-7-7s5-5-5-|-5s4-4-4-4s2-2-0-|
|-(0)---------------|-----------------|


   e  e e e     e e e s s    s  s s s s s s s s e   s +q
|-------------------------|---------------------------------|
|--2--2-0-2b2.5---2-0-----|--5------3-----2-----3p==0-(0)---|
|--2--2-0-0-------2-0-----|---------------------------------|
|---------------------0h5-|-----0h4---0h2---0h4-------------|
|-------------------------|---------------------------------|
|-------------------------|---------------------------------|
|
|                                                 ~
| +e  e q       e q   e     +e    e   q       e   q       e
|-------------------------|---------------------------------|
|-(2)-2-2-------2-0---2---|-(2)---2---2-------2-------------|
|-(2)-2-2-------2-0---2---|-(2)---2---2-------2-------------|
|-(2)-2-2-------2-0---2---|-(2)---2---2-------2-------------|
|-(0)-0-0-------0-0---0---|-(0)---0---0-------0-------------|
|-------------------------|-----------------------3-------0-|


   q    q   e e e e   q   e e +e e e e
|-------0---0---0-0-|-0---0-0-(0)0-0-0-|
|-------0---0-3-3-3-|-3---0-0-(0)3-3-3-|
|-------------4-4-4-|-4----------4-4-4-|
|-------------------|------------------|
|-------------------|------------------|
|--0----------------|------------------|
|
| +e  e e e e e e e   e e e e  e e e e
|-------------------|------------------|
|-------------------|----------------2-|
|-----9-9-9-9s7-7-7-|-7s6-6-6--6s4-4-2-|
|-------------------|----------------2-|
|-----7-7-7-7s5-5-5-|-5s4-4-4--4s2-2-0-|
|-(0)---------------|------------------|


   q    q  q   e s s    s  s s s s s s s s s s s e e
|--0-------0---------|-------------------------------*|
|--0----3--0---------|--5------3-----5-----7-----8s9-*|
|-------4------0-----|-------------------------------*|
|--------------0-0h6-|-----0h4---0h6---0h7---0h8-----*|
|--------------------|-------------------------------*|
|--------------------|-------------------------------*|
|
| +e  e q  e q   e     +e    e   q       q       q
|--------------------|-------------------------------*|
|-(2)-2-2--2-0---2---|-(2)---2---2-------8-------8---*|
|-(2)-2-2--2-0---2---|-(2)---2---2-------9-------9---*|
|-(2)-2-2--2-0---2---|-(2)---2---2-------------------*|
|-(0)-0-0--0-0---0---|-(0)---0---0-------------------*|
|--------------------|-------------------------------*|

            
            
Suggest correction
Creating personal tab
Creating personal tab
You can edit any tab online and save it as your Personal.

You can edit, replace or remove any tab part or add personal notes – all changes will be seen only by you.

Personal tabs can be accessed anytime from any device, even offline.
Learn more »
Give kudos to tab author, rate the tab!
1 2 3 4 5
comments
print report bad tab
guest
You may want to rate the tab now too:
select rating
Wanna post a correction for this tab? Suggest correction