Oops, an error
Loading. Please wait.

Im The One bass

version 1
version 1

Whole song

Interactive

2,840 views 3 this week
no commentswrite comment
1 2 3 4 5
1 last vote to show rating
add to favorites
×
Save as Personal and add changes to this tab that will be seen only by you. Learn more ›
×
You can save this tab as Personal to edit and correct it or add notes. All changes will be seen only by you. Learn more »
launch autoscroll
font size
0
reset
guitar tuner
backing track
0:00
0:00
edit
Autoscroll
slow
fast
+/-
esc
set tempo
stop
----------------------------------------------------------------------------------------------------
I'M THE ONE - Van Halen
----------------------------------------------------------------------------------------------------

Tabbed By: van_halen_fan 

Tuning: Half-Step Down (from low to high: Eb,Ab,Db,Gb)

   Intro

               Q  Q  H     H   Q  Q    W      H   E E E E + E   E Q  H     H   Q  Q    H   Q  E E + 
Gb|----------|----r--r---|-r---r-----|-r----|-r---r---r---|-----r-r--r---|-r---r-----|-r---r--r----|
Db|--16-bar--|----e--e---|-e---e-----|-e----|-e---e---e---|-----e-e--e---|-e---e-----|-e---e--e----|
Ab|---rest---|----s--s---|-s---s-----|-s----|-s---s---s---|-----s-s--s---|-s---s-----|-s---s--s----|
Eb|----------|-5--t--t---|-t---t--5--|-t----|-t---t-5-t-5-|(5)\-t-t--t---|-t---t--5--|-t---t--t-5/-|



    Q   Q  Q  Q      Q  Q  Q  Q      Q  Q  Q  Q      Q  Q  Q  Q      Q  Q  Q  Q      Q  Q  Q  Q
Gb|----------------|---------------|---------------|---------------|---------------|---------------|
Db|----------------|---------------|---------------|---------------|---------------|---------------|
Ab|----------------|---------------|---------------|---------------|---------------|---------------|
Eb|-10\-2--3--4----|-5--5--5--5----|-5--2--3--4----|-5--5--5--5----|-5--8--7--6----|-5--5--5--5----|

                                                   Verse 1

    Q  Q  Q  Q      Q  Q  Q  Q      Q  Q  Q  Q      Q  Q  Q  Q      Q  Q  Q  Q      Q  Q  Q  Q
Gb|---------------|---------------|---------------|---------------|---------------|----------------|
Db|---------------|---------------|---------------|---------------|---------------|----------------|
Ab|---------------|----4--5--6----|-7-------------|---------------|---------------|----------------|
Eb|-5--2--3--4----|-5-------------|----2--3--4----|-5--5--5--5----|-5--2--3--4----|-5--5--5--5-----|



    Q  Q  Q  Q      Q  Q  Q  Q      Q  Q  Q  Q      Q  Q  Q  Q      Q  Q  Q  Q      Q  Q  Q  Q
Gb|---------------|---------------|---------------|---------------|---------------|----------------|
Db|---------------|---------------|---------------|---------------|---------------|----------------|
Ab|---------------|---------------|---------------|---------------|-7--6--5-------|----------------|
Eb|-5--8--7--6----|-5--5--5--5----|-5--2--3--4----|-5--5--5--5----|----------8----|-5--5--5--5-----|



    Q  Q  Q  Q      Q  Q  Q  Q      Q  Q  Q  Q      Q  Q  Q  Q      Q  Q  Q  Q      Q  Q  Q  Q
Gb|---------------|---------------|---------------|---------------|---------------|----------------|
Db|---------------|---------------|---------------|---------------|---------------|----------------|
Ab|---------------|---------------|---------------|---------------|---------------|----4--5--6-----|
Eb|-5--2--3--4----|-5--5--5--5----|-5--8--7--6----|-5--5--5--5----|-5--2--3--4----|-5--------------|

                   Pre-Chorus

    Q  Q  Q  Q      E Q. Q  Q      Q  Q  Q  E E   + E E Q  Q  Q      Q  Q  Q  Q      E Q. Q  Q   
Gb|---------------|-r------------|----------------|----------------|---------------|-r-------------|
Db|----4--5--6----|-e-7--6--5----|-4--------------|----------------|---------------|-e-7--6--5-----|
Ab|-7-------------|-s------------|----8--7--6-5---|(5)5------------|----------5----|-s-------------|
Eb|---------------|-t------------|----------------|-----8--7--5----|-3--2--0-------|-t-------------|


    Q  Q  Q  E E  + E E Q  Q  Q     Q^Q^Q^Q^Q^Q     E Q. Q  Q     Q  Q   Q  E E   + E E Q  Q  Q
Gb|---------------|---------------|---4-4-5-6-7---|-r-----------|-----------------|----------------|
Db|-4-------------|-----4--5--6---|-7-------------|-e-9--8--7---|-6---------------|----------------|
Ab|----8--7--6-5--|(5)5-----------|---------------|-s-----------|----10--9--8-7---|(7)7-7--7--7----|
Eb|---------------|---------------|---------------|-t-----------|-----------------|----------------|

                                                  Chorus

    Q  Q  Q  Q     E Q. Q  Q     Q  Q   E Q  E   + E E Q  Q  Q      Q  Q  Q E E   + E E Q  Q  Q
Gb|--------------|-r-----------|-----------------|----------------|---------------|----------------|
Db|--------------|-e-9--8--7---|-6---------------|----------------|---------------|----------------|
Ab|-7------------|-s-----------|----10--9-7--3---|(3)3-2--3--4----|-5--3--2-------|----------------|
Eb|----5--6--7---|-t-----------|-----------------|----------------|---------3-0---|(0)0-3--0--3----|



    Q  Q  Q  E E  + E E Q  Q  Q     Q  Q  Q  E E +  E E Q  Q  Q     Q  Q  Q  E E  + E E E E Q  Q
Gb|---------------|---------------|---------------|---------------|---------------|----------------|
Db|---------------|---------------|---------------|---------------|---------------|----------------|
Ab|----0--1--2-3--|(3)3-2--3--4---|-5--7--5-------|---------------|----0--1--2-3--|(3)3-2-2-3--4---|
Eb|-0-------------|---------------|----------3-0--|(0)0-3--0--3---|-0-------------|----------------|

                                                                                     Guitar Solo

    Q  Q  Q   E  E  + E E Q  Q  Q     Q  Q  Q  E E  + E E Q  Q  Q     Q  Q  Q  E E  + Q  Q  Q  Q
Gb|----9--10--11/---|---------------|---------------|---------------|---------------|--------------|
Db|-----------------|---------------|---------------|---------------|---------------|--------------|
Ab|-5---------------|---------------|----0--1--2-3--|(3)3-2--3--4---|-5--7--5--3-2--|(2)-2--2--2---|
Eb|--------------0--|(0)0-3--0--3---|-0-------------|---------------|---------------|--------------|



    Q  Q  Q  Q      Q  Q  Q  Q      Q  Q  Q  E^E^E     Q  Q  Q  Q      Q  Q  Q  Q      Q  Q  H
Gb|---------------|---------------|------------------|---------------|---------------|-------------|
Db|---------------|---------------|------------------|---------------|----1--2--4----|-------------|
Ab|-2--5--4--3----|-2--2--2--2----|-2--5--6--2-5-6---|-2--2--2--2----|-2-------------|-2--2--------|
Eb|---------------|---------------|------------------|---------------|---------------|-------2/\---|



    Q  Q  Q  Q    Q  Q  Q  Q    Q  Q  Q  Q    Q  Q  Q  Q    E Q. Q  Q    Q  Q  Q  Q    Q  Q  Q  Q
Gb|----4--------|-------------|-------------|-------------|------------|-------------|-------------|
Db|-------------|-------------|-------------|-------------|------------|-------------|-------------|
Ab|-2-----3--4--|-5--5--5--5--|-5--5--3--4--|-5--5--5--5--|-5-8--7--6--|-5--5--5--5--|-5--2--3--4--|
Eb|-------------|-------------|-------------|-------------|------------|-------------|-------------|



    Q  Q  E Q.   Q  Q  Q  Q    Q  Q  Q  Q    Q  Q  Q  Q    Q  Q  Q  Q    Q  Q  Q  Q    Q  Q  Q  Q
Gb|------------|-------------|-------------|-------------|-------------|-------------|-------------|
Db|------------|-------------|-------------|-------------|-------------|-------------|-------------|
Ab|-5--5--5----|-5-----------|-------------|-------------|-------------|-------------|-------------|
Eb|---------5/\|----0--1--2--|-3--3--3--3--|-3--0--1--2--|-3--3--3--3--|-3--6--5--3--|-5--5--5--5--|

                                                   Verse 2

    Q  Q  Q  Q      Q  Q  Q  Q      Q  Q  Q  Q      Q  Q  Q  Q      Q  Q  Q  Q      Q  Q  Q  Q
Gb|---------------|---------------|---------------|---------------|---------------|----------------|
Db|---------------|---------------|---------------|---------------|---------------|----------------|
Ab|---------------|---------------|---------------|---------------|---------------|----------------|
Eb|-5--2--3--4----|-5--5--5--5----|-5--8--7--6----|-5--5--5--5----|-5--2--3--4----|-5--5--5--5-----|



    Q  Q  Q  Q      Q  Q  Q  Q      Q  Q  Q  Q      Q  Q  Q  Q      Q  Q  Q  Q      Q  Q  Q  Q
Gb|---------------|---------------|---------------|---------------|---------------|----------------|
Db|---------------|---------------|---------------|---------------|----7--5-------|----------------|
Ab|---------------|---------------|---------------|---------------|----------7----|----------------|
Eb|-5--8--7--6----|-5--5--5--5----|-5--2--3--4----|-5--5--5--5----|-5-------------|-5--5--5--5-----|



    Q  Q  Q  Q      Q  Q  Q  Q      Q  Q  Q  Q      Q  Q  Q  Q      Q  Q  Q  Q      Q  Q  Q  Q
Gb|---------------|---------------|---------------|---------------|---------------|----------------|
Db|---------------|---------------|---------------|---------------|---------------|----------------|
Ab|---------------|---------------|---------------|---------------|---------------|----4--5--6-----|
Eb|-5--2--3--4----|-5--5--5--5----|-5--8--7--6----|-5--5--5--5----|-5--2--3--4----|-5--------------|

                   Pre-Chorus

    Q  Q  Q  Q      E Q. Q  Q      Q  Q  Q  E E   + E E Q  Q  Q      Q  Q  Q  Q      E Q. Q  Q
Gb|---------------|-r------------|----------------|----------------|---------------|-r-------------|
Db|---------------|-e-7--6--5----|-4--------------|----------------|---------------|-e-7--6--5-----|
Ab|-7-------------|-s------------|----8--7--6-5---|(5)5-5--5--5----|---------------|-s-------------|
Eb|----2--3--4----|-t------------|----------------|----------------|-8--7--5--3----|-t-------------|



    Q  Q  Q  E E + E E Q  Q  Q    Q^Q^^Q  Q^^Q^^Q      E Q. Q  Q    Q  Q   Q  E E + E E Q  Q  Q
Gb|--------------|--------5--6--|-r-17-18-19-19-19\--|-r----------|---------------|----------------|
Db|-4------------|-----7--------|-e------------------|-e-9--8--7--|-6-------------|----------------|
Ab|----8--7--6-5-|(5)5----------|-s------------------|-s----------|----10--9--8-7-|(7)7-7--7--7----|
Eb|--------------|--------------|-t------------------|-t----------|---------------|----------------|

                                                 Chorus

    Q  Q  Q  Q     E Q. Q  Q     Q  Q   E Q  E  + E E Q  Q  Q      Q  Q  Q  E E   + E E Q  Q  Q
Gb|--------------|-r-----------|----------------|----------------|----------------|----------------|
Db|--------------|-e-9--8--7---|-6--------------|----------------|----------------|----------------|
Ab|-7------------|-s-----------|----10--9-7--3--|(3)3-2--3--4----|-5--3--2--------|----------------|
Eb|----5--6--7---|-t-----------|----------------|----------------|----------3-0---|(0)0-3--0--3----|



    Q  Q  Q  E E + E E Q  Q  Q     Q  Q  Q   E  E  + E E Q  Q  Q     Q  Q  Q  E E  + Q  Q  Q  Q
Gb|--------------|---------------|----9--10--11/---|---------------|---------------|---------------|
Db|--------------|---------------|-----------------|---------------|----2--0-------|---------------|
Ab|----0--1--2-3-|(3)3-2--3--4---|-5---------------|---------------|----------2-3--|(3)-2--3--4----|
Eb|-0------------|---------------|--------------0--|(0)0-3--0--3---|-0-------------|---------------|

                                                                                  Guitar Solo

    Q  Q  Q  E E  + E E Q  Q  Q     Q  Q  Q  E E  + E E Q  Q  Q     Q  Q  Q  E E  + Q  Q  Q  Q
Gb|---------------|---------------|---------------|---------------|---------------|----------------|
Db|---------------|---------------|---------------|---------------|---------------|----------------|
Ab|-5--3--2-------|---------------|----0--1--2-3--|(3)3-2--3--4---|-5--7--5--3-2--|(2)-2--2--2-----|
Eb|----------3-0--|(0)0-3--0--3---|-0-------------|---------------|---------------|----------------|



    Q  Q  Q  Q    Q  Q  Q  Q    Q  Q  Q  Q    Q  Q  Q  Q    Q  Q  Q  Q    Q  Q  E Q.   Q  Q  Q  Q
Gb|-------------|-------------|-------------|-------------|----1--2--3--|-4--4--4-4/-|-------------|
Db|-------------|-------------|-------------|----1--2--3--|-4-----------|------------|-------------|
Ab|-2--5--4--3--|-2--2--2--2--|-2-----------|-2-----------|-------------|------------|-2--4--5--6--|
Eb|-------------|-------------|----0--1--2--|-------------|-------------|------------|-------------|

                                   Bridge

      Q  Q  Q  Q  7x  Q  Q  Q  Q    Q  Q  H                H   Q  Q     Q  Q  Q  Q    Q  Q  Q  Q
Gb||---------------||-------------|----r--r---|----------|-r---r------|-------------|--------------|
Db||*-------------*||-------------|----e--e---|--14-bar--|-e---e------|----7-----8--|----9-----10--|
Ab||*-------------*||-------------|----s--s---|---rest---|-s---s------|-------------|--------------|
Eb||--0--3--0--3---||-0--2--3--4--|-5--t--t---|----------|-t---t--12\-|-5-----6-----|-7-----8------|

                                      Out-Chorus

    Q  Q   Q   Q      Q   Q   Q.  E  + E E Q  Q  Q     Q  Q  Q  E E + E E Q  Q  Q    Q  Q  Q  E E +
Gb|-----------------|----------------|---------------|--------------|--------------|---------------|
Db|----11------12---|-----13---------|---------------|--------------|--------------|---------------|
Ab|-----------------|-------------3--|(3)3-2--3--4---|-5--3--2------|--------------|----0--1--2-3--|
Eb|-9------10-------|-11-----/12\----|---------------|----------3-0-|(0)0-3--0--3--|-0-------------|



    E E E E E E E E   Q  Q  Q  E E + Q  E Q  E E E + E E E Q  E E E + E E Q  Q  Q    Q  Q  Q  E E  +
Gb|-----------------|--------------|---------------|----------------|--------------|---------------|
Db|-----------------|--------------|---------------|----------------|--------------|---------------|
Ab|(3)3-2-2-3-3-4-4-|-5--7--5------|---------------|--------------3-|(3)3-2--3--4--|-5--3--2-------|
Eb|-----------------|----------3-0-|(0)-3-0--0-3-0-|(0)0-3-0--0-3---|--------------|----------3-0--|

                                                             Free Time
                                  rit.
    E E E Q  E Q    Q  Q  Q  Q    Q  Q  Q  Q    Q  Q  Q  Q    W         Q   Q  H
Gb|---------------|-------------|-------------|-------------|---------|-----r--r---||
Db|---------------|-------------|-------------|-------------|---------|-----e--e---||
Ab|---------------|----0--1--2--|-3--2--3--4--|-5--4--5--6--|-7///----|-----s--s---||
Eb|(0)0-3-0--0-3--|-0-----------|-------------|-------------|-0///----|/12\-t--t---||

Enjoy!!!

| /   slide up            W = whole note
| \   slide down          H = half note          H. = dotted half note
| h   hammer-on           Q = quarter note       Q. = dotted quarter note
| p   pull-off            E = eighth note        E. = dotted eighth note
| ~   vibrato             S = sixteenth note     S. = dotted sixteenth note
| /// tremolo picking     
| +   harmonic            X^X^X = triplet
| x   Mute note
====================================================================================================

            
            
Suggest correction
Creating personal tab
Creating personal tab
You can edit any tab online and save it as your Personal.

You can edit, replace or remove any tab part or add personal notes – all changes will be seen only by you.

Personal tabs can be accessed anytime from any device, even offline.
Learn more »
Give kudos to tab author, rate the tab!
1 2 3 4 5
comments
print report bad tab
guest
You may want to rate the tab now too:
select rating
Wanna post a correction for this tab? Suggest correction