Oops, an error
Loading. Please wait.

Jamies Cryin bass

version 2
version 2

Whole song

Interactive

3,361 views 1 this week
no commentswrite comment
1 2 3 4 5
3 more votes to show rating
add to favorites
×
Save as Personal and add changes to this tab that will be seen only by you. Learn more ›
×
You can save this tab as Personal to edit and correct it or add notes. All changes will be seen only by you. Learn more »
launch autoscroll
font size
0
reset
guitar tuner
backing track
0:00
0:00
edit
Autoscroll
slow
fast
+/-
esc
set tempo
stop
Author
-------------------------------------------------------------------------------
			     JAMIE'S CRYIN' - Van Halen
-------------------------------------------------------------------------------

Tabbed By : Isaias Garcia (TexasFury)

Tuning: 1/2 step down

 
      W                   Q    E  E  Q    E  E     Q    E  E  E  E  E  E     Q    E  E  Q    E  E   
F#||-------------------|------------------------|-------------------------|------------------------|
C#||-------------------|------------------------|-------------------------|------------------------|
G#||-------------------|------------------------|-------------------------|------------------------|
D#||-------------------|--0-------0--0-------0--|--0-------7--7--6--5--3--|--0-------0--0-------0--|


  Q    E  E  E  E  E  E     Q    E  E  Q    E  E     Q    E  E  E  E  E  E   
-------------------------|------------------------|-------------------------|
-------------------------|------------------------|-------------------------|
-------------------------|------------------------|-------------------------|
--0-------7--7--6--5--3--|--0-------0--0-------0--|--0-------7--7--6--5--3--|


                                                     Verse 1                   
  Q    E  E  Q    E  E     Q    E  E  E  E  E  E     Q       E  E  Q    E  E   
------------------------|-------------------------|---------------------------|
------------------------|-------------------------|---------------------------|
------------------------|-------------------------|---------------------------|
--0-------0--0-------0--|--0-------7--7--6--5--3--|--0----------0--0-------0--|


  Q    E  E  Q    Q        Q    E  E  Q    E  E     Q    E  E  E  E  E  E   
------------------------|------------------------|-------------------------|
------------------------|------------------------|-------------------------|
-------------5----------|------------------------|-------------------------|
--0-------0-------5\----|--0-------0--0-------0--|--0-------0--7--6--5--3--|


  Q    E  E  Q    E  E     Q    E  E  E  E  Q        Q    E  E  Q    E  E   
------------------------|----------------7--------|------------------------|
------------------------|-------------------------|------------------------|
------------------------|-------------5-----------|------------------------|
--0-------0--0-------0--|--0-------0--------5\----|--0-------0--0-------0--|


  Q    E  E  E  E  E  E     E  E  E  E  E  E  Q       Q    Q    E  E  E  E   
-------------------------|--------------4----------|------------------------|
-------------------------|-----4-------------------|------------------------|
-------------------------|-----------2-----2--0----|--L---------0--0--0--2--|
--0-------0--7--6--5--3--|--2-----2----------------|------------------------|


  Chorus 1                                                                      
  Q        E  E  Q    E  E     Q    E  E  E  E  E  E     Q    E  E  Q    E  E   
----------------------------|-------------------------|------------------------|
----------------------------|-------------------------|------------------------|
----------------------------|-------------------------|------------------------|
--0-----------0--0-------0--|--0-------0--7--6--5--3--|--0-------0--0-------0--|


  Q    E  E  E  E  E  E     Q    E  E  Q    E  E     Q    E  E  E  E  E  E   
-------------------------|------------------------|-------------------------|
-------------------------|------------------------|-------------------------|
-------------------------|------------------------|-------------------------|
--0-------0--7--6--5--3--|--0-------0--0-------0--|--0-------0--7--6--5--3--|


                                                     Verse 2                   
  Q    E  E  Q    E  E     Q    E  E  E  E  E  E     Q       E  E  Q    E  E   
------------------------|-------------------------|---------------------------|
------------------------|-------------------------|---------------------------|
------------------------|-------------------------|---------------------------|
--0-------0--0-------0--|--0-------0--7--6--5--3--|--0----------0--0-------0--|


  Q    E  E  S E.  Q        Q    E  E  Q    E  E     Q    E  E  E  E  E  E   
---------------7---------|------------------------|-------------------------|
-------------------------|------------------------|-------------------------|
-------------5-----------|------------------------|-------------------------|
--0-------0--------5\----|--0-------0--0-------0--|--0-------7--7--6--5--3--|


  Q    E  E  Q    E  E     Q    E  E  S E.  Q        Q    E  E  Q    E  E   
------------------------|---------------7---------|------------------------|
------------------------|-------------------------|------------------------|
------------------------|-------------5-----------|------------------------|
--0-------0--0-------0--|--0-------0--------5\----|--0-------0--0-------0--|


  Q    E  E  E  E  E  E     E  E  E  E  E  E  E  E     E  E  E  E  Q    E  E   
-------------------------|--------------------------|-------------------------|
-------------------------|--------------------------|-------------------------|
-------------------------|--------------------------|-------------------------|
--0-------7--7--6--5--3--|--5--5--5--5--5--5--5--5--|--5--5--5--5--5----5--0--|


  E  E  E  E  E  E  E  E     E  E  E  E  E  E  E  E     E  E  E  E  E  E  E  E   
--------------------------|--------------------------|--------------------------|
--------------------------|-----4-----5-----6-----7--|--------------------------|
--------------------------|--------------------------|--------------------------|
--5--5--5--5--5--5--5--5--|--5-----5-----5-----5-----|--5--5--5--5--5--5--5--5--|


  E  E  E  E  E  E  E  E     E  E  E  E  E  E  E  E     E  E  E  E  E  E  E  E   
--------------------------|--------------------------|--------------------------|
-----------------4--------|--------------------------|-----------4-----5-----6--|
--------------------------|--------------------------|--------------------------|
--5--5--5--5--5-----5--0--|--5--5--5--5--5--5--5--5--|--5--2--L-----3-----4-----|


  Chorus 2                                                                      
  Q        E  E  Q    E  E     Q    E  E  E  E  E  E     Q    E  E  Q    E  E   
----------------------------|-------------------------|------------------------|
----------------------------|-------------------------|------------------------|
----------------------------|-------------------------|------------------------|
--0-----------0--0-------0--|--0-------0--7--6--5--3--|--0-------0--0-------0--|


  Q    E  E  E  E  E  E     Q    E  E  Q    E  E     Q    E  E  E  E  E  E   
-------------------------|------------------------|-------------------------|
-------------------------|------------------------|-------------------------|
-------------------------|------------------------|-------------------------|
--0-------0--7--6--5--3--|--0-------0--0-------0--|--0-------0--7--6--5--3--|


                                                     Bridge                   
  Q    E  E  Q    E  E     Q    E  E  E  E  E  E     Q      E  E  E  E  Q     
------------------------|-------------------------|------------6--L--4--6----|
------------------------|-------------------------|--------------------------|
------------------------|-------------------------|--4-----------------------|
--0-------0--0-------0--|--0-------0--7--6--5--3--|--------------------------|


  Q    E  E  Q    Q        Q    E  E  E  E  Q       Q.     E  Q    Q        Q    E  E  E  E  Q      
------------------------|----------6--L--6-------|-----------------------|----------6--L--4--6S----|
------------------------|------------------------|---------4-------------|-------------------------|
--5-------7--L----9\----|--4---------------------|-----------------2S----|--4----------------------|
------------------------|-------------------0----|--2---------2----------|-------------------------|


   Q.     E  H           Q    E  E  Q    E  E     Q        E   E   S  S  S  S  Q     
--11------9--L--------|------------------------|------------------------------------|
----------------------|------------------------|-------12g14--14--14-14-14-14-14----|
----------------------|------------------------|------------------------------------|
----------------------|--0-------0--0-------0--|--0---------------------------------|


  Guitar Solo                                                                      
  Q           E  E  Q    E  E     Q    E  E  E  E  E  E     Q    E  E  Q    E  E   
-------------------------------|-------------------------|------------------------|
-------------------------------|-------------------------|------------------------|
-------------------------------|-------------------------|------------------------|
--0--------------0--0-------0--|--0-------0--7--6--5--3--|--0-------0--0-------0--|


  Q    E  E  E  E  E  E     Q    E  E  Q    E  E     Q    E  E  E  E  E  E   
-------------------------|------------------------|-------------------------|
-------------------------|------------------------|-------------------------|
-------------------------|------------------------|-------------------------|
--0-------0--7--6--5--3--|--0-------0--0-------0--|--0-------0--7--6--5--3--|


                                                     Pre-chorus                       
  Q    E  E  Q    E  E     Q    E  E  E  E  E  E     E          E  E  E  E  E  E  E   
------------------------|-------------------------|----------------------------------|
------------------------|-------------------------|----------------------------------|
------------------------|-------------------------|----------------------------------|
--0-------0--0-------0--|--0-------0--7--6--5--3--|--5----------5--5--5--5--5--5--5--|


  E  E  E  E  E  E  E  E     E  E  E  E  E  E  E  E     E  E  E  E  E  E  E  E   
--------------------------|--------------------------|--------------------------|
-----------------4--------|--------------------------|-----4-----5-----6-----7--|
-----------------------7--|--------------------------|--------------------------|
--5--5--5--5--5-----5-----|--5--5--5--5--5--5--5--5--|--5-----5-----5-----5-----|


  E  E  E  E  E  E  E  E     E  E  E  E  E  E  E  E     E  E  E  E  E  E  E  E   
--------------------------|--------------------------|--------------------------|
--------------------------|-----------------4--------|--------------------------|
--------------------------|-----------------------7--|--------------------------|
--5--5--5--5--5--5--5--5--|--5--5--5--5--5-----5-----|--5--5--5--5--5--5--5--5--|


                             Chorus 3                                             
  E  E  E  E  E  E  E  E     Q        E  E  Q    E  E     Q    E  E  E  E  E  E   
--------------------------|----------------------------|-------------------------|
-----------4-----5-----6--|----------------------------|-------------------------|
--------------------------|----------------------------|-------------------------|
--5--2--L-----3-----4-----|--0-----------0--0-------0--|--0-------0--7--6--5--3--|


  Q    E  E  Q    E  E     Q    E  E  E  E  E  E     E  E  E  E  E  E  Q     
------------------------|-------------------------|--------------4----------|
------------------------|-------------------------|-----4-------------------|
------------------------|-------------------------|-----------2-----2--0----|
--0-------0--0-------0--|--0-------0--7--6--5--3--|--2-----2----------------|


                           Out-chorus                                             
  Q    Q    E  E  E  E     Q          E  E  Q    E  E     Q    E  E  E  E  E  E   
------------------------|------------------------------|-------------------------|
------------------------|------------------------------|-------------------------|
--L---------0--0--0--2--|------------------------------|-------------------------|
------------------------|--0-------------0--0-------0--|--0-------0--7--6--5--3--|


  Q    E  E  Q    E  E     Q    E  E  E  E  E  E     Q    E  E  Q    E  E   
------------------------|-------------------------|------------------------|
------------------------|-------------------------|------------------------|
------------------------|-------------------------|------------------------|
--0-------0--0-------0--|--0-------0--7--6--5--3--|--0-------0--0-------0--|


  Q    E  E  E  E  E  E     Q    E  E  Q    E  E     Q    E  E  E  E  E  E   
-------------------------|------------------------|-------------------------|
-------------------------|------------------------|-------------------------|
-------------------------|------------------------|-------------------------|
--0-------0--7--6--5--3--|--0-------0--0-------0--|--0-------0--7--6--5--3--|


  Q    E  E  Q    E  E     Q    E  E  E  E  E  E     Q    E  E  Q    E  E   
------------------------|-------------------------|------------------------|
------------------------|-------------------------|------------------------|
------------------------|-------------------------|------------------------|
--0-------0--0-------0--|--0-------0--7--6--5--3--|--0-------0--0-------0--|


  Q    E  E  E  E  E  E     Q    E  E  Q    E  E     Q    E  E  E  E  E  E   
-------------------------|------------------------|-------------------------|
-------------------------|------------------------|-------------------------|
-------------------------|------------------------|-------------------------|
--0-------0--7--6--5--3--|--0-------0--0-------0--|--0-------0--7--6--5--3--|


                                                     Outro                   
  Q    E  E  Q    E  E     Q    E  E  E  E  E  E     Q     E  E  Q    E  E   
------------------------|-------------------------|-------------------------|
------------------------|-------------------------|-------------------------|
------------------------|-------------------------|-------------------------|
--0-------0--0-------0--|--0-------0--7--6--5--3--|--0--------0--0-------0--|


  E  E  E  E  E  E  E  E     Q    E  E  Q    E  E     Q    E  E  E  E  E  E   
--------------------------|------------------------|-------------------------|
--------------------------|------------------------|-------------------------|
--------------------------|------------------------|-------------------------|
--0--0-----0--7--6--5--3--|--0-------0--0-------0--|--0-------0--7--6--5--3--|


  Q    E  E  Q    E  E     Q    E  E  E  E  E  E     Q    E  E  Q    E  E   
------------------------|-------------------------|------------------------|
------------------------|-------------------------|------------------------|
------------------------|-------------------------|------------------------|
--0-------0--0-------0--|--0-------0--7--6--5--3--|--0-------0--0-------0--|


  Q    E  E  E  E  E  E     Q    E  E  Q    E  E     Q    E  E  E  E  E  E   
-------------------------|------------------------|-------------------------|
-------------------------|------------------------|-------------------------|
-------------------------|------------------------|-------------------------|
--0-------0--7--6--5--3--|--0-------0--0-------0--|--0-------0--7--6--5--3--|


  Q    E  E  Q    E  E     Q    E  E  E  E  E  E     Q    E  E  Q    E  E   
------------------------|-------------------------|------------------------|
------------------------|-------------------------|------------------------|
------------------------|-------------------------|------------------------|
--0-------0--0-------0--|--0-------0--7--6--5--3--|--0-------0--0-------0--|


  Q    E  E  E  E  E  E    
-------------------------||
-------------------------||
-------------------------||
--0-------0--7--6--5--3--||




Duration Legend
---------------
W - whole
H - half
Q - quarter
E - 8th
S - 16th
T - 32nd
X - 64th
. - note dotted
|-n-|  - n-tuplets


Tablature Legend
----------------
L - tied note
x - dead note
g - grace note
(n) - ghost note
> - accentuded note
NH - natural harmonic
AH - artificial harmonic
TH - tapped harmonic
SH - semi harmonic
PH - pitch harmonic
h - hammer on
p - pull off
b - bend
br - bendRelease
pb - preBend
pbr - preBendRelease
brb - bendReleaseBend
\n/ - tremolo bar dip
\n - tremolo bar dive
-/n - tremolo bar Release up
/n\ - tremolo bar inverted dip
/n - tremolo bar return
-\n - tremolo bar Release down
S - shift slide
s - legato slide
/ -  slide into from below or out of upwards
\ -  slide into from above or out of downwards
~ - vibrato
W - wide vibrato
tr - trill
TP - tremolo picking
T - tapping
S - slap
P - pop
< - fade in
^ - brush up
v - brush down

Check out the Guitar Pro 5.2, Powertab and text versions at U-G as well.

            
            
Suggest correction
Creating personal tab
Creating personal tab
You can edit any tab online and save it as your Personal.

You can edit, replace or remove any tab part or add personal notes – all changes will be seen only by you.

Personal tabs can be accessed anytime from any device, even offline.
Learn more »
Give kudos to tab author, rate the tab!
1 2 3 4 5
comments
print report bad tab
guest
You may want to rate the tab now too:
select rating
Wanna post a correction for this tab? Suggest correction