Oops, an error
Loading. Please wait.

Little Dreamer tab

version 2
version 2

Whole song

Interactive

9,457 views 9 this week
no commentswrite comment
1 2 3 4 5
2 more votes to show rating
add to favorites
×
Save as Personal and add changes to this tab that will be seen only by you. Learn more ›
×
You can save this tab as Personal to edit and correct it or add notes. All changes will be seen only by you. Learn more »
launch autoscroll
font size
0
reset
how to read this tab
guitar tuner
backing track
0:00
0:00
edit
Autoscroll
slow
fast
+/-
esc
set tempo
stop
-------------------------------------------------------------------------------
                             LITTLE DREAMER - Van Halen
-------------------------------------------------------------------------------

Tabbed by: Isaias Garcia (TexasFury)

Tuning: half-step down

      Intro
      S S E  E  E  S S E  E  E      S S E  E  E  S S E  E  E      S S E  E  E  S S E  E  E
D#||-----------------------------|-----------------------------|-----------------------------|
A#||-----------------------------|-----------------------------|-----------------------------|
F#||------------8--L-------------|------------3--L-------------|------------8--L-------------|
C#||------------8--L-------------|------------3--L-------------|------------8--L-------------|
G#||------6--8-------------------|------1--3-------------------|------6--8-------------------|
D#||--8-8------------8-8--L--8\--|--3-3------------3-3--L--3/--|--8-8------------8-8--L--8\--|


  S S E  E  E  S S E  E  E      S S E  E  E  S S E  E  E      S S E  E  E  S S E  E  E
-----------------------------|-----------------------------|-----------------------------|
-----------------------------|-----------------------------|-----------------------------|
------------3--L-------------|------------8--L-------------|------------3--L-------------|
------------3--L-------------|------------8--L-------------|------------3--L-------------|
------1--3-------------------|------6--8-------------------|------1--3-------------------|
--3-3------------3-3--L--3/--|--8-8------------8-8--L--8\--|--3-3------------3-3--L--3/--|


                                                              Verse 1
                                                              PM PM PM PM PM PM PM
  S S E  E  E  S S E  E  E      S S E  E  E  S S E  E  E      E  E  E  E  E  E  S  E.
-----------------------------|-----------------------------|---------------------------|
-----------------------------|-----------------------------|---------------------------|
------------8--L-------------|------------3--L-------------|-----------------------8---|
------------8--L-------------|------------3--L-------------|-----------------------8---|
------6--8-------------------|------1--3-------------------|---------------------------|
--8-8------------8-8--L--8\--|--3-3------------3-3--L--3/--|--8--8--8--8--8--8--8------|


      PM PM PM PM PM PM            PM PM PM PM PM           PM PM PM PM PM PM
  E   E  E  E  E  E  S  E.     E   E  E  E  E  E  E  E      E  E  E  E  E  E  S E  S
----------------------------|----------------------------|----------------------------|
----------------------------|----------------------------|----------------------------|
--L\--------------------3---|--L/------------------------|----------------------------|
--L\--------------------3---|--L/-----------------8--L\--|--------------------3-3--L/-|
----------------------------|---------------------8--L\--|--------------------3-3--L/-|
------3--3--3--3--3--3------|------6--6--6--6--6--6--L\--|--1--1--1--1--1--1--1-1--L/-|


  PM PM PM PM PM PM PM            PM PM PM PM PM PM            PM PM PM PM PM
  E  E  E  E  E  E  S  E.     E   E  E  E  E  E  S  E.     E   E  E  E  E  E  E  E
---------------------------|----------------------------|----------------------------|
---------------------------|----------------------------|----------------------------|
-----------------------8---|--L\--------------------3---|--L/------------------------|
-----------------------8---|--L\--------------------3---|--L/-----------------8--L\--|
---------------------------|----------------------------|---------------------8--L\--|
--8--8--8--8--8--8--8------|------3--3--3--3--3--3------|------6--6--6--6--6--6--L\--|


                               Chorus 1
  PM PM PM PM
  E  E  E  E  Q       Q        S S E  E  E  S S E  E  E      S S E  E  E  S S E  E  E
----------------------------|-----------------------------|-----------------------------|
----------------------------|-----------------------------|-----------------------------|
----------------------------|------------8--L-------------|------------3--L-------------|
--------------3-------------|------------8--L-------------|------------3--L-------------|
--------------3-------------|------6--8-------------------|------1--3-------------------|
--1--1--1--1--1----5g17\----|--8-8------------8-8--L--8\--|--3-3------------3-3--L--3\--|


                                                \1/
  S S E  E  E  S S E   S E   T  T    S E   T  T S   E    S  S S  S  S  E.  S
----------------------------------|---------------------(5)-------------------|
----------------------------------|---------------------(5)-------------------|
------------1--L-------x-5b--Lp-4-|--5-5b--Lp-4-5---Lb------0-----------------|
------------1--L-------x----------|-------------------------------------------|
---------1------------------------|---------------------------5s-4s-3s-2---L/-|
--1-1-4----------1-3/-------------|-------------------------------------------|


                                                                                       NH   NH
                                                                                 |-----3-----|
  S S E  E  E  S S E  E  E      S S E  E  E  S S E  E  E      S S E  E  E  Q     E     E 
   E
-----------------------------|-----------------------------|------------------------------------|
-----------------------------|-----------------------------|------------------------------------|
------------8--L-------------|------------3--L-------------|------------1--L/----0--------<>12--|
------------8--L-------------|------------3--L-------------|------------1--L/-------<>12--------|
------6--8-------------------|------1--3-------------------|---------1--------------------------|
--8-8------------8-8--L--8\--|--3-3------------3-3--L--3\--|--1-1-4-----------------------------|


                                               Verse 2
    NH   NH   NH   \1/    \1/ \1/ \1/  \1/     PM PM PM PM PM PM PM
    |----3----|
    E    E    E    Q      S   S   E    Q       E  E  E  E  E  E  S  E.
--------------------------------------------|---------------------------|
--------------------------------------------|---------------------------|
-------<>7--<>7--<>5----<>L-<>L-<>L--<>L----|--L--------------------8---|
--<>7---------------------------------------|-----------------------8---|
--------------------------------------------|---------------------------|
--------------------------------------------|--8--8--8--8--8--8--8------|


      PM PM PM PM PM PM            PM PM PM PM PM           PM PM PM PM PM PM
  E   E  E  E  E  E  S  E.     E   E  E  E  E  E  E  E      E  E  E  E  E  E  S E  S
----------------------------|----------------------------|----------------------------|
----------------------------|----------------------------|----------------------------|
--L\--------------------3---|--L/------------------------|----------------------------|
--L\--------------------3---|--L/-----------------8--L\--|--------------------3-3--L/-|
----------------------------|---------------------8--L\--|--------------------3-3--L/-|
------3--3--3--3--3--3------|------6--6--6--6--6--6--L\--|--1--1--1--1--1--1--1-1--L/-|


  PM PM PM PM PM PM          PM PM PM PM PM PM         PM PM PM PM PM PM
  E  E  E  E  E  E  S E.     E  E  E  E  E  E  Q       E  E  E  E  E  E  E    E
--------------------------|-------------------------|-----------------------------|
--------------------------|-------------------------|-----------------------------|
--------------------------|--------------------8----|-----------------------------|
--------------------6-6---|--------8-----8-----8----|-----------------------------|
--------6-----6-----6-6---|--6--6--6--6--6--6--6----|--------8-----8-----8--------|
--4--4--4--4--4--4--4-4---|-------------------------|--6--6--6--6--6--6--6s--11\--|


                         Chorus 2
  H.            Q        S S E  E  E  S S E   E  E      S S E  E  E  S S E  E  E
--3-------------------|------------------------------|-----------------------------|
--3-------------------|------------------------------|-----------------------------|
--0-------------------|------------8--L--------------|------------3--L-------------|
--0-------------------|------------8--L--------------|------------3--L-------------|
----------------------|------6--8--------------------|------1--3-------------------|
--3------------12\----|--8-8------------8-8~--L--8\--|--3-3------------3-3--L--3\--|


                                                        \1/ \1/
  S S E  E  E  S S E   E  E      S S S S  E  S S S E.   S   E.       S S E  E  E  S S E  
E.
------------------------------|----6-----------6------------------|-----------------------------|
------------------------------|--6---8-------6---8----------------|-----------------------------|
------------1--L-------0--2/--|--------8b-L--------8b---Lpb-Lpb---|------------8--L-------------|
------------1--L-------0------|-----------------------------------|------------8--L-------------|
---------1--------------------|-----------------------------------|------6--8-------------------|
--1-1-4-----1--L-1-1/---------|-----------------------------------|--8-8------------8-8--L-8\---|


  S S E  E  E  S S E  E  E      S S E  E  E  E   E   E    E
-----------------------------|--------------------------------|
-----------------------------|--------------------------------|
------------3--L-------------|------------1--L/---------------|
------------3--L-------------|------------1--L/---------------|
------1--3-------------------|---------1----------------------|
--3-3------------3-3--3--3\--|--1-1-4------------3S--5/--10\--|


                                          Guitar Solo
    |--3--|
    E  E  E   S T  T S  S Q.      E       E.    S   Q     S T T  T T  S  T  T  T  T T  T 
T  T
--------------------------------------|---------------------8----x-------8----------8----------|
----------3b--3-5p-3-1p-0-------------|--11b---11b--L----11---8-11-8-------11p-8------11p-8----|
--0g2--0------------------5b------5/--|------------------------------11b---------11---------11-|
--------------------------------------|--------------------------------------------------------|
--------------------------------------|--------------------------------------------------------|
--------------------------------------|--------------------------------------------------------|


                                        \1/
  |---3--|   |--3--|
  E  E   E   E  E  E  Q    S E.      E  E   Q    E.  S  E    T  S.
--8--8----------------------------|--------------------------------|
--8--8----------------------------|-------------------------11-13b-|
--------11--10--9--8--7----L-7b---|--L--5---L----L---L/------------|
----------------------------------|---------------------8/---------|
----------------------------------|--------------------------------|
----------------------------------|--------------------------------|


                             \1/
   |---3---|     |-----3-----|
   Q       E     E     E     E   E     S.  T   S  E.
-------------------------------------------------------|
---Lpb-----Lpb---Lpb---Lpb---L--13pb~--L--12\--L-11b---|
------------------------------------------12\--L-------|
-------------------------------------------------------|
-------------------------------------------------------|
-------------------------------------------------------|


                        T      T                  T                  T
            |---3---|   |---3--|
   E.    S  E   E   E   S   S  S   T   T   T   T  T   T   T   T   T  T   T   T
------------x-------------------------------------------------------------------|
--11b-------x--13--14--16p-14-16p-14p-13p-11h-13-16p-14p-13p-11h-13-16p-14p-13h-|
--------------------------------------------------------------------------------|
--------------------------------------------------------------------------------|
--------(0)---------------------------------------------------------------------|
--------------------------------------------------------------------------------|


                 T      T         \1/ \1/ \1/ \1/
   T   T   T  T  T   T  T   T  S  E.  S   S   E    E   S  S
-------------------------------------------------------------|
--11h-13p-11s-9----------------------------------------8-11b-|
----------------12p-10-12p-10s-8p-7---L---L---Ls--14\--------|
-------------------------------------------------------------|
-------------------------------------------------------------|
-------------------------------------------------------------|


   Q.       E   E.    S      S  S  E       S  S  S    S  S    S  E    E.     S   E    E
---------------------------------------|-----18------18------18---------------------------|
---Lb-------L---L~----L\-------16-18b--|---L----18pb----18pb----18b--18pb----Lb--Lb---L\--|
-------------------------10g17---------|--------------------------------------------------|
---------------------------------------|--------------------------------------------------|
---------------------------------------|--------------------------------------------------|
---------------------------------------|--------------------------------------------------|


  Verse 3
  PM PM PM PM PM PM PM            PM PM PM PM PM PM            PM PM PM PM PM
  E  E  E  E  E  E  S  E.     E   E  E  E  E  E  S  E.     E   E  E  E  E  E  S E.
---------------------------|----------------------------|----------------------------|
---------------------------|----------------------------|----------------------------|
-----------------------8---|--L\--------------------3---|--L/------------------------|
-----------------------8---|--L\--------------------3---|--L/-------------------8\---|
---------------------------|----------------------------|-----------------------8\---|
--8--8--8--8--8--8--8------|------3--3--3--3--3--3------|------6--6--6--6--6--6-6\---|


  PM PM PM PM PM PM PM          PM PM PM PM PM PM          PM PM PM PM    PM
  E  E  E  E  E  E  S  E  S     E  E  E  E  E  E  S E.     E  E  E  E  E  E  S E.
-----------------------------|--------------------------|--------------------------|
-----------------------------|--------------------------|--------------------------|
-----------------------------|--------------------------|--------------------8-8---|
-----------------------3--L/-|--------------------6-6---|--------8-----8-----8-8---|
--------------3--------3--L/-|--------6-----6-----6-6---|--6--6--6--6--6--6--6-6---|
--1--1--1--1--1--1--1--1--L/-|--4--4--4--4--4--4--4-4---|--------------------------|


                                                               Chorus 3
  PM PM PM PM PM PM PM
  E  E  E  E  E  E  S     E.      Q.       E  Q.        E      S S E  E  E  S S E   E  E
-------------------------------|--3-------------------------|------------------------------|
-------------------------------|--3-------------------------|------------------------------|
-------------------------------|--0------2g0--L-------------|------------8--L--------------|
-------------------------------|--0-------------------------|------------8--L--------------|
--------8-----8-----8----------|----------------------------|------6--8--------------------|
--6--6--6--6--6--6--6--7g11\---|--3------------------7g12\--|--8-8------------8-8~--L--8\--|


  S S E  E  E  S S E  E  E      S S E  E  E  S S E   S E   T  T
-----------------------------|----------------------------------|
-----------------------------|----------------------------------|
------------3--L-------------|------------1--L---------3h--5p-3-|
------------3--L-------------|------------1--L------------------|
------1--3-------------------|---------1------------------------|
--3-3------------3-3--L--3\--|--1-1-4-----1--L-1-1/-------------|


        PM
  S S S S  S  S S S S S E   E    E      S S E  E  E  S S E   E  E      S S E  E  E  S S E E  E
-------------------------------------|------------------------------|-----------------------------|
-------------------------------------|------------------------------|-----------------------------|
--2-3-0------------------------------|------------8--L--------------|------------3--L-------------|
-----------3p-2---2------------------|------------8--L--------------|------------3--L-------------|
--------5-------3-----3-5~--5/-------|------6--8--------------------|------1--3-------------------|
--------------------5-----------15\--|--8-8------------8-8~--L--8\--|--3-3-------3--L-3-3--L--3\--|


  S S E  E  E  S S E   S E   T  T    S S S S S S E   Q    S  E   S
----------------------------------|---------------------------------|
-------------------------8h--9p-8-|--6-8-4-6-3-4--------------------|
------------1--L------------------|--------------5b--L----Lb-Lb--6/-|
------------1--L------------------|---------------------------------|
---------1------------------------|---------------------------------|
--1-1-4-----1--L-1-1/-------------|---------------------------------|


    PM                                                                                  \1/   \1/
  S S  E  E  E  S S E   E  E      S S E  E  E  S S E  E  E      S S E  E  E  E     E    
  S  S
-------------------------------|-----------------------------|-----------------------------13--L--|
-------------------------------|-----------------------------|-------------------------15---------|
-------------8--L--------------|------------3--L-------------|------------1--L--------------------|
-------------8--L--------------|------------3--L-------------|------------1--L--------------------|
-------6--8--------------------|------1--3-------------------|---------1---------(11)-------------|
--8-8--------8--L-8-8~--L--8\--|--3-3-------3--L-3-3--L--3\--|--1-1-4-----1--L/-------------------|


   \1/    \1/      \1/ /2\                  PM
   S   S  E   E.   S   Q     S  S  E      S S  E  E  E  S S E   E  E      S S E  E  E  H
---L-----13---L----L--13-----L---------|-------------------------------|------------------------|
------15-------------------------------|-------------------------------|------------------------|
---------------------------------------|-------------8--L--------------|------------3-----------|
--------------------------------x------|-------------8--L--------------|------------3-----------|
--------------------------------x-12\--|-------6--8--------------------|------1--3--------------|
----------------------------------12\--|--8-8-------------8-8~--L--8\--|--3-3-------3-----------|


                      <
  W                   W                   W                   W                   W
-------------------|-------------------|-------------------|-------------------|-----------------|
-------------------|-------------------|-------------------|-------------------|-----------------|
-------------------|-------------------|-------------------|-------------------|-----------------|
-------------------|--3----------------|--L----------------|--L----------------|--L--------------|
-------------------|--3----------------|--L----------------|--L----------------|--L--------------|
-------------------|--1----------------|--L----------------|--L----------------|--L--------------|


  W
-------------------||
-------------------||
-------------------||
--L----------------||
--L----------------||
--L----------------||


Duration Legend
---------------
W - whole
H - half
Q - quarter
E - 8th
S - 16th
T - 32nd
X - 64th
. - note dotted
|-n-|  - n-tuplets


Tablature Legend
----------------
L - tied note
x - dead note
g - grace note
(n) - ghost note
NH - natural harmonic
PH - pitch harmonic
h - hammer on
p - pull off
b - bend
br - bendRelease
pb - preBend
pbr - preBendRelease
brb - bendReleaseBend
\n/ - tremolo bar dip
\n - tremolo bar dive
-/n - tremolo bar Release up
/n\ - tremolo bar inverted dip
/n - tremolo bar return
-\n - tremolo bar Release down
S - shift slide
s - legato slide
/ -  slide into from below or out of upwards
\ -  slide into from above or out of downwards
~ - vibrato
T - tapping
< - fade in

Check my other tabs for Guitar Pro, Powertab, chords, guitar/bass text at
http://profile.ultimate-guitar.com/TexasFury/contributions/

            
            
Suggest correction
Creating personal tab
Creating personal tab
You can edit any tab online and save it as your Personal.

You can edit, replace or remove any tab part or add personal notes – all changes will be seen only by you.

Personal tabs can be accessed anytime from any device, even offline.
Learn more »
Give kudos to tab author, rate the tab!
1 2 3 4 5
comments
print report bad tab
guest
You may want to rate the tab now too:
select rating
Wanna post a correction for this tab? Suggest correction